Misc Unsigned Bands - Generic Storm - Ill Be Your Nothing Chords & Tabs

 

Generic Storm - Ill Be Your Nothing Chords & Tabs

Misc Unsigned Bands Chords & Tabs

Version: 1 Type: Tab 0 ratings
1 star 2 stars 3 stars 4 stars 5 stars
comments

Generic Storm - Ill Be Your Nothing Tab

Band Name: Generic Storm
Author: Jeremy Zavitz
Tabbed by: Jeremy Zavitz

Legend
~ = Let note ring through for a few seconds
^ = The number in the staff below should be hit slashing up, (e to E)
/ = Slide up
\ = Slide down (if i got the wrong angle then you'll be able to tell 
    which way too slide.

The songs starts off slow, then when you get to the chord part it 
speeds up. Keep the fast beat going til the end where the intro 
goes backwards, then you start to slow down again. This song sounds
good on acoustic even though I did the tab for electric. For the 
intro on acoustic, make sure you go to the 5,
(-2-22-222-3-33-333-x-xx-xxx-x-xx-xxx--)
(-0-00-000-0-00-000-2-22-222-5-55-555--)<--(Sounds better on 
acoustic.) This song is easy but make sure you do it fast, shouldn't
be hard. Please leave any comments/questions/complaints in a reply.
I want feedback cause I really like this song but if all you think it 
sucks then its no good I guess, or I'll have to make changes. Anyways hope
you enjoy.

Intro (finger picked)              
----------------------------------------0-|
---------------------------------------0--|
--------------------------------------0---|
----0~----0~--2~~~2~--0~-----0~------0----|
-0~----0~----------------0~-----0~--0-----|
-----------------------------------0------|
                                   |-----|Slash down slowly

---------------------------------------------------------|
---------------------------------------------------------|
-------------------0---0---------0-----------------------|
---0---2----2---0----------2-2----------2---0----0---2~--|
-0---0----0---0------0---0-----0---0--0---0----0---0-----|
---------------------------------------------------------|

-----------------------------------|
-----------------------------------|
-----------------------------------|
-2/5-3-2-3-5-5\-0-3-0-2-0-3-0-5-0--|
----0-0-0-0------------------------|
-----------------------------------|

--------------------------------------|
--------------------------------------|
--------------------------------------|
-x-xx-xxx-x-xx-xxx-x-xx-xxx-x-xx-xxx--|
-2-22-222-2-22-222/3-33-333-3-33-333--|
-0-00-000-0-00-000-0-00-000-0-00-000--|

-------------------------------------|
-------------------------------------|
-------------------------------------|
0-00-000-0-00-000-0-00-000-0-00-000--|
x-xx-xxx-x-xx-xxx-x-xx-xxx-x-xx-xxx--|
2-22-222-2-22-222/4-44-444-4-44-444--|

-0--0---0-0--0---0-0--0---0-0--0---0-|
-0--0---0-0--0---0-0--0---0-0--0---0-|
-0--0---0-0--0---0-0--0---0-0--0---0-|
-x-xx-xxx-x-xx-xxx-x-xx-xxx-x-xx-xxx-|
-2-22-222-2-22-222/3-33-333-3-33-333-|
-0-00-000-0-00-000-0-00-000-0-00-000-|

0--0---0-0--0---0-0--0---0-0--0---0--|
0--0---0-0--0---0-0--0---0-0--0---0--|
0--0---0-0--0---0-0--0---0-0--0---0--|
0-00-000-0-00-000-0-00-000-0-00-000--|
x-xx-xxx-x-xx-xxx-x-xx-xxx-x-xx-xxx--|
2-22-222-2-22-222/4-44-444-4-44-444--|

   ^  ^   ^   ^    ^  ^   ^   ^  ^   ^ 
-0-00-0-0-0-0-00-0-00-0-0-0-0-00-0-0-0--0-00-
-0-00-0-0-0-0-00-0-00-0-0-0-0-00-0-0-0--0-00-
-0-00-0-0-0-0-00-0-00-0-0-0-0-00-0-0-0--0-00-
-x-xx-------x-xx-x-xx-------0-00--------0-00-
-2-22-------2-22/3-33-------x-xx--------x-xx
-0-00-------0-00-0-00-------2-22--------2-22


   ^  ^   ^   ^  ^   ^   
-0-00-0-0-0-0-00-0-0-0--|
-0-00-0-0-0-0-00-0-0-0--|
-0-00-0-0-0-0-00-0-0-0--|
-0-00-------0-00--------|
-x-xx-------x-xx--------|
/4-44-------4-44--------|

       ^        ^        ^        ^    
------000------000------000------000--|
------000------000------000------000--|
------000------000------000------000--|
---xx-xxx---xx-xxx---xx-xxx---xx-xxx--|
-2-22-222-2-22-222/3-33-333-3-33-333--|
-0-00-000-0-00-000-0-00-000-0-00-000--|

       ^        ^        ^        ^
------000------000------000------000--|
------000------000------000------000--|
------000------000------000------000--|
---00-000---00-000---00-000---00-000--|
---xx-xxx---xx-xxx---xx-xxx---xx-xxx--|
-2-22-222-2-22-222/4-44-444-4-44-444--|

Verse 1
--------------------------------------------------|
--------------------------------------------------|
----------------0-------0------0-------0------00--|
--------------9---9---9---9--9---9---9---9----99--|
-3-33-2-0~~-7-------7-------7------7-------7\-77--|
--------------------------------------------------|


---------------------------------------|
---------------------------------------|
-----0-------0-------0-------0-----00--|
---7---7---7---7---7---7---7---7---77--|
-5-------5-------5-------5-------5-55--|
---------------------------------------|

-----------------------------------------|
-----------------------------------------|
-----0-------0-------0-------0-----00-2--|
---5---5---5---5---5---5---5---5---55-0--|
-3-------3-------3-------3-------5-33-0--|
-----------------------------------------|
[ Tab from: http://www.guitartabs.cc/tabs/m/misc_unsigned_bands/generic_storm_ill_be_your_nothing_tab.html ]
Pre Chorus
----------------------------------------------------|
----------------------------------------------------|
------------------------------------------21\12~~~--|
-3-5-7\1/12\11--------------------------------------|
---------------3-5-7\1/12\10------------------------|
-----------------------------3-5-7\1/12\9-----------|

Chorus
---------------------------------------|
---------------------------------------|
---------------------------------------|
-7-77-777/9-99-999\2-22-222/4-44-444/--|
-7-77-777/9-99-999\2-22-222/4-44-444/--|
-5-55-555/7-77-777\0-00-000/2-22-222/--|

----------7-77-777-----------9-99-999--|
----------7-77-777-----------9-99-999--|
----------7-77-777-----------9-99-999--|
-7-77-777----------/9-99-999-----------|
-7-77-777----------/9-99-999-----------|
-5-55-555----------/7-77-777-----------|

----------2-22-222-----------4-44-444\--|
----------2-22-222-----------4-44-444\--|
----------2-22-222-----------4-44-444\--|
/2-22-222---------/4-44-444/------------|
/2-22-222---------/4-44-444/------------|
/0-00-000---------/2-22-222/------------|

Verse 2
----------------------------------------------|
----------------------------------------------|
-----0-----0-----0-----0-----0-----0--000000--|
---5-----5-----7-----7-----9-----9----997755--|
-3-----3-----5-----5-----7-----7------775533--|
----------------------------------------------|

Play Pre Chorus Again

Play Chorus again

Solo  (Do this solo faster than the regular tempo, about 16th notes, no slower than 8th notes.
)
-21-19-17-19-17-15-15-17--|
--------------------------|
--------------------------|
--------------------------|
--------------------------|
--------------------------|

--------------------------------------------------------------------------|
--------------------------------------------------------------------------|
-0-2-3-2-0-------------------------------------------------0-2-3-2-0-2/15-|
----------5-4-0-2-3-2-0-2-2-3-2-0-2------------------------0-2-3-2-0-2/15-|
-----------------------------------3-2-0-1--------------------------------|
------------------------------------------3-2-0-3-3/14\2~\1---------------|
			                         |^|
                                          (bend up with finger) 

--------------------------------------------------------------------|
--------------------------------------------------------------------|
----------0-----------0-2-----------3-2-0-----------3-2-0-2\--------|
-2-2-0-3-2---2-2-0-3-2----2-2-0-3-2-------2-2-0-3-2---------5-4-0-2-|
--------------------------------------------------------------------|
--------------------------------------------------------------------|



---12--15--15--12-19-17-15--12--12--------------------------------|
-12--12--12--12-----------15--15--14-12-12-14-12-15\1-------------|
-----------------------------------------------------1/15-14-12~--|
------------------------------------------------------------------|
------------------------------------------------------------------|
------------------------------------------------------------------|

------------------------------------------|
------------------------------------------|
---0--0--0--0--0--0--0--0--0--0--0--0--2--|
--5--5--7--7--9--9--9--9--7--7--5--5--0---|
-3--3--5--5--7--7--7--7--5--5--3--3--0----|
------------------------------------------|

Verse 3
   ^  ^   ^   ^    ^  ^   ^   ^  ^   ^ 
-0-00-0-0-0-0-00-0-00-0-0-0-0-00-0-0-0--0-00-
-0-00-0-0-0-0-00-0-00-0-0-0-0-00-0-0-0--0-00-
-0-00-0-0-0-0-00-0-00-0-0-0-0-00-0-0-0--0-00-
-x-xx-------x-xx-x-xx-------0-00--------0-00-
-2-22-------2-22/3-33-------x-xx--------x-xx
-0-00-------0-00-0-00-------2-22--------2-22


   ^  ^   ^   ^  ^   ^   
-0-00-0-0-0-0-00-0-0-0--|
-0-00-0-0-0-0-00-0-0-0--|
-0-00-0-0-0-0-00-0-0-0--|
-0-00-------0-00--------|
-x-xx-------x-xx--------|
/4-44-------4-44--------|

Play Chorus again

Play Pre Chorus

Outro
------------------------------------------|
------------------------------------------|
------------------------------------------|
-0-5-0-3-0-2-0-3-0-5-0-3-0-2/5-3-2-3-5\2--|
------------------------------0-0-0-0-----|
------------------------------------------|

-------------------------------------------------------|
-------------------------------------------------------|
---------------------0---------0---0-------------------|
-2---0----0---2----------2-2----------0---2---2---0----|
---0---0----0---0--0---0-----0---0------0---0---0---0--|
-------------------------------------------------------|

-0------------------------------------0~~~--|
--0-----------------------------------0~~~--|
---0----------------------------------0~~~--|
----0------0~-----0~-2~~~2~-0~-----0~-0~~~--|
-----0--0~-----0~--------------0~-----0~~~--|
------0-------------------------------0~~~--|
 |-----|
  Slash 
   Down
 slowly

-0--0---0-0--0---0-0--0---0-0--0---0-|
-0--0---0-0--0---0-0--0---0-0--0---0-|
-0--0---0-0--0---0-0--0---0-0--0---0-|
-x-xx-xxx-x-xx-xxx-x-xx-xxx-x-xx-xxx-|
-2-22-222-2-22-222/3-33-333-3-33-333-|
-0-00-000-0-00-000-0-00-000-0-00-000-|

0--0---0-0--0---0-0--0---0-0--0---0-0----|
0--0---0-0--0---0-0--0---0-0--0---0-0----|
0--0---0-0--0---0-0--0---0-0--0---0-0----|
0-00-000-0-00-000-0-00-000-0-00-000-0----|
x-xx-xxx-x-xx-xxx-x-xx-xxx-x-xx-xxx-x----|
2-22-222-2-22-222/4-44-444-4-44-444-2~~~-|

Please leave any suggestions in the comments. Thanks.
Comments