Misc Unsigned Bands - Generic Storm - Cant Do This Anymore Chords & Tabs

 

Generic Storm - Cant Do This Anymore Chords & Tabs

Misc Unsigned Bands Chords & Tabs

Version: 1 Type: Tab 0 ratings
1 star 2 stars 3 stars 4 stars 5 stars
comments

Generic Storm - Cant Do This Anymore Tab

   
This one is actually a whole song complete with solo, (unlike my last). I like it
a lot more than Still I See, this actually sounds like a rock song. Anyways here
it is. Took me all day, please rate.

 ~~~ = let ring
 h   = hammer on
 \   = slide down
 /   = slide up
 p   = palm mute
 \b  = bend down
 b/  = release bend
 b   = hold the bend

(note) Okay in the intro I linked a few of the staffs together to show the 
bass or 2nd guitar tabs that go in rhythm with the main guitar. As for the other
parts of the song that have the lines all down the side, those are just to
indicate what section of the song they are. Keep the rhythm fast, preferably 8th notes.

   - clean electric fading into heavy distortion
 _ - gtr I
| |-------|
| |-------|
| |-------|   	
| |-------|    
| |-3~~~~-|
| |-1~~~~-|
|
|  - electric distortion
|  - gtr I
| |----------------|
| |----------------|
| |----------------|
| |----------------|
| |-3~-3-2~-3-3-2~-|
| |-1~-1-0~-1-1-0~-|
|      p    p p    
|  
|  - electric distortion  (repeat both staffs twice)
|  - gtr I
| |-----------------------------------------------------------------|
| |-----------------------------------------------------------------|
| |-----------------------------------------------------------------|
| |-----------------------------------------------------------------|
| |-3------3------3------3333333-3-2------2------2------222222-2-3--|
| |-1xxxxxx1xxxxxx1xxxxxx1111111-1-0xxxxxx0xxxxxx0xxxxxx000000-0-1--|
| | p      p      p            p p p      p      p           p p p
| |
| |- background during intro (either guitar or bass, have volume lower 
| |  than lead guitar) - distortion
| |- gtr II
| |-----------------------------------------------------------------|
| |-----------------------------------------------------------------|
| |-----------------------------------------------------------------|
| |-----------------------------------------------------------------|
| |----------------------3333333-3-2--------------------333333-3-2--|
| |-300000030000003000000-----------00000020000002000000------------|
|                              p p p
|  - electric distortion  (repeat both staffs twice)
|  - gtr I
| |-----------------------------------------------------------------------|
| |-----------------------------------------------------------------------|
| |-----------------------------------------------------------------------|
| |-33------33------33------3333333-3-22------22------22------222222-2-3--|
| |-33------33------33------3333333-3-22------22------22------222222-2-3--|
| |-11xxxxxx11xxxxxx11xxxxxx1111111-1-00xxxxxx00xxxxxx00xxxxxx000000-0-1--|
| |  p       p       p            p p  p       p       p           p p p 
| | 
| |- background during intro (either guitar or bass, have volume 
| |  lower than lead guitar) - distortion
| |- gtr II
| |-----------------------------------------------------------------|
| |-----------------------------------------------------------------|
| |-----------------------------------------------------------------|
| |----------------------3333333-3-2--------------------222222-3-2--|
| |-3000000300000030000003333333-3-200000020000002000000222222-3-2--|
| |-300000030000003000000-----------00000020000002000000------------| 
|                              p p p                         p p p 
| If you have a whammy bar thats good cause this part sounds best with one.
| Bend down the bar down anywhere between 1/4 & 1/2 then hammer these notes.
| As you hit the notes you'll most likely take pressure off the bar which will
| tighten the notes. Its best to do this, gives it a good sound.
|
|  - heavy electric distortion  
|  - gtr I
| |-------------------------------------------------------------------------|
| |-------------------------------------------------------------------------|
| |-12-12-12-12-12-13-12-12-12-12-12-13-15-15-15-15-15-16-15-15-15-15-15-17-|
| |-------------------------------------------------------------------------|
| |-------------------------------------------------------------------------|
I |-------------------------------------------------------------------------|
N |
T |- heavy electric distortion
R |- gtr II
O |-------------------------------------------------------------------------|
| |-------------------------------------------------------------------------|
| |-2--2--2--2--2--3--2--2--2--2--2--3--5--5--5--5--5--6--5--5--5--5--5--7--|
| |-------------------------------------------------------------------------|
| |-------------------------------------------------------------------------|
| |-------------------------------------------------------------------------|
|
|  - heavy electric distortion  
|  - gtr I
| |----------------------------|
| |----------------------------|
| |-12-12-12-12-12-13-15-17\1--|
| |----------------------------|
| |----------------------------|
| |----------------------------|
|
|  - heavy electric distortion  
|  - gtr II (hit these notes just as gtr I starts to hit 17\1, 
|  - last note slides off into nowhere
| |------------------|
| |------------------|
| |------------------|
| |--------5-4-2-5/--|
| |-3-2-0~-5-4-2-5/--|
|_|-1-0-0~-3-2-0-----|
[ Tab from: http://www.guitartabs.cc/tabs/m/misc_unsigned_bands/generic_storm_cant_do_this_anymore_tab.html ]
   - clean or lightly distorted electric
   - either guitar (probably being gtr I)
   - Either use these notes or the ones from verse 1b
   - let all notes ring straight through
   - Gtr I
 
 _  o-pen your eyes I'm beside you
| |-------------------------------|
| |-------------------------------|
| |-------------------------------|
| |-7-9---7----5~---3---5-3----2--|
| |-7-9---7----5~---3---5-3----2--|
| |-------------------------------|
|
|   But you just turn a-way,
| |------------------------|
| |------------------------|
| |------------------------|
| |-7---9----7---5----9-5--|
V |-7---9----7---5----9-5--|
E |------------------------|
R
S   Why can't you just widen your thoughts?,
E |-----------------------------------|
  |-----------------------------------|
1 |-----------------------------------|
a |-7---9-----7---5~---3-5---3----2~--|
| |-7---9-----7---5~---3-5---3----2~--|
| |-----------------------------------|
|
|   Because I still hate you,
| |--------------------------|
| |--------------------------|
| |--------------------------|
| |-7-9-----7-5-----9----5~--|
| |-7-9-----7-5-----9----5~--|
| |--------------------------|
|
|   Cause I still don't know what to say,
| |--------------------------------------|
| |--------------------------------------|
| |--------------------------------------|
| |-7-----9-7-----5~----3----5----3--2~--|
| |-7-----9-7-----5~----3----5----3--2~--|
| |--------------------------------------|
|
|   I wish I could go change,
| |-----------------------|
| |-----------------------|
| |-----------------------|
| |-7-9----7-5-----9--5~--|
| |-7-9----7-5-----9--5~--|
|
|   I'd make myself less deranged,
| |---------------------------|
| |---------------------------|
| |---------------------------|
| |-7---6----5-4----9~---9-9--|
| |-7---6----5-4----9~---9-9--|
| |-5---5----3-2----7~---7-7--|
|
|   Cause I'm lost and confused without you,
| |----------------------------------------|
| |----------------------------------------|
| |----------------------------------------|
| |-7-----6---5----4---7~-------7-------7--|
| |-7-----6---5----4---7~-------7-------7--|
| |-5-----5---3----2---5~-------5-------5--|
|
|   Can't have you back cause you'll attack,
| |-------------------------------------|
| |-------------------------------------|
| |-------------------------------------|
| |-7-----6----5---4----5~----5------5--|
| |-7-----6----5---4----5~----5------5--|
| |-5-----5----3---2----3~----3------3--|
|
|   Me at my weakness,
| |-------------------|
| |-------------------|
| |-------------------|
| |-7--6--5--4-2-2-2--|
| |-7--6--5--4-2-2-2--|
|_|-5--5--3--2-0-0-0--|

P  And I can't take anything... anymore,
C |------------------------------12-12-12-|
H |------------------------------12-10-10-|
O |------------------------------10-10-10-|
R |-5---6-7-----8----9-9--9---------------|
U |-5---6-7-----8----9-9--9---------------|
S |-3---4-5-----6----7-7--0~~~~~~~~~~~~~~-|

   - Huge electric distortion
   - Just do it at a constant speed, don't worry about the words.
   - Both Gtr
 _ - Do it 2 or 3 times, on the last time slide out of the last power chord).
C |--------------------------------------------|
H |--------------------------------------------|
O |--------------------------------------------|
R |-5555-6-5~-5555-6-5~-9999-10-9~-9999-10-9~--|
U |-5555-6-5~-5555-6-5~-9999-10-9~-9999-10-9~--|
S_|-3333-4-3~-3333-4-3~-7777--8-7~-7777--8-7~--|
      
   - Clean or lightly distorted electric
   - Gtr 1
   - If you find the 2 riffs aren't long enough for the verse 
 _   then repeat the first riff) 
| |-------------------------------------------------------------|
| |----0-2-3-2-1-1-1--0-2-3-2-------0-2-3-2-------0-2-3-2-0~----|
| |---2-----------------------3-3-3---------2-2-2----------0----|
| |--2------------------------------------------------------0---|
V |-0--------------------------------------------------------0--|
E |-------------------------------------------------------------|
R
S |-----------------------------------------------------------|
E |-----------------------------------------------------------|
  |---0-2-3-2-1-1-1-0-2-3-2-------------0-2-3-2---------------|
1 |--2----------------------3-3-3-2-2-2---------2-2-2~-2-3-2--|
b |-2---------------------------------------------------------|
|_|-----------------------------------------------------------|

  
   - Solo
   - Huge electric distortion (Add a pedal for effects if you want,
     i don't have any so you decide.
   - Gtr I
 _ - Bend the notes so they sound around an octave lower than written.
| |--------------------------------------------------------------|
| |--------------------------------------------------------------|
| |-12-12-12-12-12-13-15-15-15-15-15-16-15-13-12-12-14-13-13-15--|
| |--------------------------------------------------------------|
| |--------------------------------------------------------------|
| |--------------------------------------------------------------|
|                       _______________________________________
|                      |            Both Gtr                   |
| |------------------------------------------------------------|
S |------------------------------------------------------------|
O |-14-14-16-14-16-14~-14-16-14~-------------------------------|
L |--------------------14-14-14~-14-16-14~-14-16-14~-----------|
O |----------------------------------------14-16-14~-14-16-14~-|
| |------------------------------------------------------------|
| 
|  - Both gtr
| |------------------------------|
| |------------------------------|
| |------------------------------|
| |-----------------------2-3-4--|
| |-14-16-14----------14~-2-3-4--|
|_|-14-16-14-14-16-14-14~-0-1-2--|

P  And I can't take anything... anymore,
C |------------------------------12-12-12--|
H |------------------------------12-10-10--|
O |------------------------------10-10-10--|
R |-5---6-7-----8----9-9--9----------------|
U |-5---6-7-----8----9-9--9----------------|
S |-3---4-5-----6----7-7--0~~~~~~~~~~~~~~--|

   - Huge electric distortion
   - Just do it at a constant speed, don't worry about the words.
   - Both Gtr
   - Do it 2 or 3 times, on the last time slide out of the last power chord).
 
 _       h h     h h h     h  h h     h  h h
C |--------------------------------------------|
H |--------------------------------------------|
O |------^-^-----^-^-^-----^--^-^-----^--^-^---|
R |-5555-6-5~-5555-6-5~-9999-10-9~-9999-10-9~--|
U |-5555-6-5~-5555-6-5~-9999-10-9~-9999-10-9~--|
S_|-3333-4-3~-3333-4-3~-7777--8-7~-7777--8-7~--|
 
 _    h   h   h   h   h   h   h   h   h   h   h   h   h   h   h   h   h   h
| |-------------------------------------------------------------------------|
| |---^---^---^---^---^---^---^---^---^---^---^---^---^---^---^---^---^---^-|
| |12\b-12b-12b-12b-12b-13b-12b-12b-12b-12b-12b-13b-15b-15b-15b-15b-15b-16b-|
| |-------------------------------------------------------------------------|
| |-------------------------------------------------------------------------|
| |-------------------------------------------------------------------------|
|
|     h   h   h   h   h   h
| |---------------------------|
| |---^---^---^---^---^---^---|
| |-15b-15b-15b-15b-15b-17b/1-|
| |---------------------------|
| |---------------------------|
| |---------------------------|
O       h h h h        h h h h       h h h h        h h h h
U |--------------------------------------------------------------|
T |----0^2^3^2^1-1-1--0^2^3^2^-------0-2-3-2-------0-2-3-2-0~----|
R |---2------------------------3-3-3---------2-2-2----------0----|
O |--2-------------------------------------------------------0---|
| |-0---------------------------------------------------------0--|
| |--------------------------------------------------------------|
|      h h h h        h h h h              h h h h                     h
| |--------------------------------------------------------------------5~~~-|
| |--------------------------------------------------------------------5~~~-|
| |---0^2^3^2^-1-1-1-0^2^3^2^-------------0^2^3^2^---------------------5~~~-|
| |--2------------------------3-3-3-2-2-2----------2-2-2~-2-3-2--------4~~~-|
| |-2-----------------------------------------------------------2------4~~~-|
|_|-------------------------------------------------------------0~~~~~-4~~~-|

________________________________________________________________________  

---Tabbed by Jeremy Zavitz
---28/01/04
Comments