Misc Unsigned Bands - Gavina - Fender Bender Chords & Tabs

 

Gavina - Fender Bender Chords & Tabs

Misc Unsigned Bands Chords & Tabs

Version: 1 Type: Bass Tab 0 ratings
1 star 2 stars 3 stars 4 stars 5 stars
comments

Gavina - Fender Bender Bass Tab

   
This Band Is Gavina It is my Band
Fender Bender Bass Tab
> = Play 8x
~ = Let Ring
Intro(4x)
G |------------------------------------------------------------
D |-------------------3--3--3--3--3--3--3--3-------------------
A |----------1--1--1-------------------------------------------
E |-1--1--1----------------------------------------------------


Intro 2/Chorus (4x)
G |------------------------------------------------------------
D |------------------------------------------------------------
A |----------1--1--1--3--3--3--1-------------------------------
E |-1--1--1----------------------------------------------------


Verse(4x)
G |------------------------------------------------------------
D |------------------------------------------------------------
A |-------------3--3--3--3--1--1--1--1--1--1--1--1-------------
E |-1--1--1--1-------------------------------------------------


Chorus(4x)
G |------------------------------------------------------------
D |------------------------------------------------------------
A |----------1--1--1--3--3--3--1-------------------------------
E |-1--1--1----------------------------------------------------


Intro(4x)
G |------------------------------------------------------------
D |-------------------3--3--3--3--3--3--3--3-------------------
A |----------1--1--1-------------------------------------------
E |-1--1--1----------------------------------------------------

[ Tab from: http://www.guitartabs.cc/tabs/m/misc_unsigned_bands/gavina_fender_bender_btab.html ]
Verse(4x)
G |------------------------------------------------------------
D |------------------------------------------------------------
A |-------------3--3--3--3--1--1--1--1--1--1--1--1-------------
E |-1--1--1--1-------------------------------------------------


Chorus(4x)
G |------------------------------------------------------------
D |------------------------------------------------------------
A |----------1--1--1--3--3--3--1-------------------------------
E |-1--1--1----------------------------------------------------


Bridge 1(3x)
G |------------------------------------------------------------
D |------------------------------------------------------------
A |-5--5--5--5--5--5--5--5--3--3--3--3--3--3--3--3-------------
E |------------------------------------------------------------



G |------------------------------------------------------------
D |------------------------------------------------------------
A |-1--1--1--1--1--1--1--1--1--1--1--1--3----------------------
E |------------------------------------------------------------


Bridge 2(1x)
G |------------------------------------------------------------
D |------------------------3--3--3--3--3--3--3--3--------------
A |-5--5--5--5--5--5--5--5------------------------3>-----------
E |------------------------------------------------------------


Chorus(8x)
G |------------------------------------------------------------
D |------------------------------------------------------------
A |----------1--1--1--3--3--3--1-------------------------------
E |-1--1--1----------------------------------------------------

End On
E |-1~
Comments