Misc Unsigned Bands - Gandul Matei - Liberty Chords & Tabs

 

Gandul Matei - Liberty Chords & Tabs

Misc Unsigned Bands Chords & Tabs

Version: 1 Type: Tab 0 ratings
1 star 2 stars 3 stars 4 stars 5 stars
comments

Gandul Matei - Liberty Tab

   
Gandul Matei
A moldavian rock band
Intro
Em(VII)         Am(V)           D               C
e|-7-----8-7-------5-----7-5---7-5-2-----3-2---3-2-0-----3-----0-|
B|---8-------8---8---5-------5-------3-------3-------1-----1-----|
G|-----9-------9-------5---------------2---------------0-----0---|
D|---------------------------------0~~~~~~~~~~~~~~~--------------|
A|-----------------0~~~~~~~~~~~~~------------------3~~~~~--------|
E|-0~~~~~~~~~~~~~~-----------------------------------------------|

   Em(VII)         Am(V)           D               C
e|-7-----8-7-------5-----7-5---7-5-2-----3-2---3-2-0-----3-----0-|
B|---8-------8---8---5-------5-------3-------3---------1-----1---|
G|-----9-------9-------5---------------2-------------0-----0-----|
D|---------------------------------0~~~~~~~~~~~~~~~--------------|
A|-----------------0~~~~~~~~~~~~~------------------3~~~~~--------|
E|-0~~~~~~~~~~~~~~-----------------------------------------------|
[ Tab from: http://www.guitartabs.cc/tabs/m/misc_unsigned_bands/gandul_matei_liberty_tab.html ]
   Am              Em
e|-0-----2-----0---0~~~~~~----------|
B|-----1---1---1---0~~~~~~----------|
G|---2-------2---2-0~~~~~~------0-2-| 
D|-----------------2~~~~~~2-2-4-----| [INTRO/VERSE]
A|-0---------------2~~~~~~----------| 
E|-----------------0~~~~~~----------|

INTRO/VERSET:
   Em             C         G        Am 
B|----------------1---3--1--0---1--0-----1-0/1-------| \
G|-0----0---0/2-0--------------------2---------2-0---|  > x2
D|-------------------------------------------------4-| /

VERSE:
Play [INTRO] 
"It's night and it's cold
See the crowded bars ..."

CHORUS,
Play [INTRO/VERSE].
"Do you feel, do you fe-e-el
Do you feel, this liberty?..."

Play distorsion BRIDGE:
Em   G(III)    F#    Em  G

================
Chords:
Em       022000
Em(VII)  779987
F#       244xxx 
G        320003  
G(III)   355xxx
Am       002210
Am(V)    577555
C        332010
D        000232

Tabs by 88mm
Comments