Misc Unsigned Bands - Funkd Up - Funk Chords & Tabs

 

Funkd Up - Funk Chords & Tabs

Misc Unsigned Bands Chords & Tabs

Version: 1 Type: Bass Tab

Funkd Up - Funk Bass Tab

   
Song: Funk
Artist: Funk'd Up

Intro - Clean Funk Riff Wah ( Dm Barré )

_________________________________________

Vers - Funk Riff Dist
.
There's a single tree                                    
Which light shines upon                                      Intro
There's a hole in the sky                                    Vers
The gods did wrong                                           Ref
There's a flower in the dirt                                 Vers2
Releasing its scent                                          Ref2
It grows tall and proud                                      Solo
As everyday goes by                                          Outro
_________________________________________

Ref Dm, C, Am, A# Clean
.
They die without their pride
We wonder why you don't even cry
Life hands you all and you want more
You took but did you give
_________________________________________

Vers2 - Funk Riff Dist
.
There's a spot of blood
Blood of the kings
There's a rebel with a knife
The rebel is now king
There's a valley of oaks
That valley stinks
Of injustice where, nobody wins
_________________________________________

Ref2 Dm, C, Am, A#
.
They die without their pride
We wonder why you don't even cry
Life hands you all and you want more
You took but did you give
_________________________________________

Solo
_________________________________________

Funk riff Outro


   Intro Bas:
   Effekt nr. 0.1          Stega uppåt med pedalen

[ Tab from: http://www.guitartabs.cc/tabs/m/misc_unsigned_bands/funkd_up_funk_btab.html ]
 |-----------------------------------------------------------------------|
 |-----------------------------------------------------------------------|
 |-------5---5---5---5---5---5-------------------------------------------|
 |-----------------------------------------------------------------------|

   Vers Bas:
   Effekt nr. 0.2

 |-----------------------------------------------------------------------|
 |-----------------------------------------------------------------------|
 |-------0-----5---5-----------------------------------------------------|
 |-----------------------------------------------------------------------|

   Ref Bas:
   Effekt nr. 0.3

 |--------------7---5h7p5-------------------2--3------3--2--0h2----------|
 |--------------------------7---5--7-------------------------------------|
 |-------5--5---------------------------0---------1----------------------|
 |-----------------------------------------------------------------------|

   Vers Bas:
   Effekt nr. 0.2

 |-----------------------------------------------------------------------|
 |-----------------------------------------------------------------------|
 |-------0-----5---5-----------------------------------------------------|
 |-----------------------------------------------------------------------|

  Ref Bas:
   Effekt nr. 0.3

 |--------------7---5h7p5-------------------2--3------3--2--0h2----------|
 |--------------------------7---5--7-------------------------------------|
 |-------5--5---------------------------0---------1----------------------|
 |-----------------------------------------------------------------------|


  Outro