Misc Unsigned Bands - Fuhgawz - Sex Alcohol And Rock N Roll Chords & Tabs

 

Fuhgawz - Sex Alcohol And Rock N Roll Chords & Tabs

Misc Unsigned Bands Chords & Tabs

Version: 1 Type: Bass Tab 0 ratings
1 star 2 stars 3 stars 4 stars 5 stars
comments

Fuhgawz - Sex Alcohol And Rock N Roll Bass Tab

   
-----------------------------------------------------------------------------
	         Sex alcohol and rock n roll - Fuhgawz
-----------------------------------------------------------------------------

Tabbed By : Ignacio "Coco" Vespoli
e-mail: cocofuhgawz@hotmail.com

Tuning: Normal


G|--------------------------------------------|
D|--------------------------------------------|
A|-------4-4--7-7--4-7--------4-4--7-7--4-7---|
E|--5-5------------------5-5------------------|


G|--------------------------------------------|
D|-------4-4--7-7--4-7--------4-4--7-7--4-7---|
A|--5-5------------------5-5------------------|
E|--------------------------------------------|

[ Tab from: http://www.guitartabs.cc/tabs/m/misc_unsigned_bands/fuhgawz_sex_alcohol_and_rock_n_roll_btab.html ]
G|--------------------------------------------|
D|--------------------------------------------|
A|-------4-4--7-7--4-7--------4-4--7-7--4-7---|
E|--5-5------------------5-5------------------|


Solo
G|----------4-4---------------------------|
D|------6-6-----6---------4-4--7-7--4-7---|
A|--7-7-----------7--5-5------------------|
E|----------------------------------------|


End
G|------------------------------------|
D|-----------------4-5-4--------------|
A|-------4-4--7-7--------7-5-4--------|
E|--5-5------------------------5~~~---|



 /  slide up
 \  slide down
 h  hammer-on
 p  pull-off
 ~  vibrato
 +  harmonic
 x  Mute note
=============================================================================

If you want to listen the song, please email-me to cocofuhgawz@hotmail.com
Comments