Misc Unsigned Bands - Fuhgawz - Panam Heavy Chords & Tabs

 

Fuhgawz - Panam Heavy Chords & Tabs

Misc Unsigned Bands Chords & Tabs

Version: 1 Type: Tab 0 ratings
1 star 2 stars 3 stars 4 stars 5 stars
comments

Fuhgawz - Panam Heavy Tab

   
-----------------------------------------------------------------------------
			     PANAM HEAVY - Fuhgawz
-----------------------------------------------------------------------------
Tabbed by: Ignacio "Coco" Vespoli	
Email: cocofuhgawz@hotmail.com


Tuning: Normal


Guitar number one's version:

INTRO AND VERSES
e|----------------------------------|
B|----------------------------------|
G|----------------------------------|
D|----------------------------------|
A|------------------------------5---|
E|--0-3-0-3-5p3-5p3-6p3-5p3-5/7-----|

[ Tab from: http://www.guitartabs.cc/tabs/m/misc_unsigned_bands/fuhgawz_panam_heavy_tab.html ]
SOLO
e|--12p8p5-12p8p5-12p8p5-12p8p5--|---13p8p5-13p8p5-13p8p5-13p8p5--|
B|-------------------------------|--------------------------------|
G|-------------------------------|--------------------------------|
D|-------------------------------|--------------------------------|
A|-------------------------------|--------------------------------|
E|-------------------------------|--------------------------------|
     T      T      T      T           T      T      T      T   
 
e|---10p8p5-10p8p5-10p8p5-10p8p5--|--12p8p5-12p8p5-12p8p5-12p8p5--|
B|--------------------------------|-------------------------------|
G|--------------------------------|-------------------------------|
D|--------------------------------|-------------------------------|
A|--------------------------------|-------------------------------|
E|--------------------------------|-------------------------------|
      T      T      T      T          T      T      T      T 


END
e|---------------------------|
B|---------------------------|
G|---------------------------|
D|---------------------------|
A|---------------------------|
E|--0-3-0-3-5p3-5p3-6p5-3-0--|




Guitar number two's version:

ITS ALL ON THIS CHORDS
e|-----|-----|-----|
B|-----|-----|-----|
G|-----|-----|-----|
D|--7--|--5--|--2--|
A|--7--|--5--|--2--|
E|--5--|--3--|--0--|

  T  tapping (right hand)
  /  slide up
  \  slide down
  h  hammer-on
  p  pull-off
  ~  vibrato
  +  harmonic
  x  Mute note
===============================================================================
Comments? Send an e-mail!!!
If you want to listen the song...send an e-mail too!!!
Comments