Misc Unsigned Bands - Fuhgawz - Capiche New Wave Chords & Tabs

 

Fuhgawz - Capiche New Wave Chords & Tabs

Misc Unsigned Bands Chords & Tabs

Version: 1 Type: Tab 0 ratings
1 star 2 stars 3 stars 4 stars 5 stars
comments

Fuhgawz - Capiche New Wave Tab

Song: Capiche New Wave
Band: Coco y Nico una tarde al pedo

Tabbed by Ignacio "Coco" Vespoli Vega
E-mail: cocofuhgawz@hotmail.com
User: Cocox2 (if you wanna know, im banned forever from the forums)  :(
 
1|--8--------8--------8-------11p8------------------------------------|
2|--11(13)---11(13)---11(13)-------11p8-------------------------------|
3|------------------------------------------10(12)__10p8--------------|
4|--------------------------------------------------------------------|
5|--------------------------------------------------------------------|
6|--------------------------------------------------------------------|

--------------|--8--------8--------8-------11p8-----------------------|
--------------|--11(13)---11(13)---11(13)-------11p8------------------|
-10-10-8------|---------------------------------------10(12)__10p8----|
-10-10-8-10---|-------------------------------------------------------|
---------10---|-------------------------------------------------------|
--------------|-------------------------------------------------------|
[ Tab from: http://www.guitartabs.cc/tabs/m/misc_unsigned_bands/fuhgawz_capiche_new_wave_tab.html ]
-----------|----------------------------------------------------------|
-----------|----------------8---------8----------8--------------------|
-10-10-8---|------8h10-8----10(12)----10(12)-----10(12)---------------|
-10-10-8---|--/10--------10-------------------------------------------|
-----------|----------------------------------------------------------|
-----------|----------------------------------------------------------|

----------------------------|---8--------8--------8------8h11p8----8--|
---11------11------11-------|---11(13)---11(13)---11(13)--------11----|
---13(15)--13(15)--13(15)---|-----------------------------------------|
----------------------------|-----------------------------------------|
----------------------------|-----------------------------------------|
----------------------------|-----------------------------------------|

---------15-------15--------15------15h18p15----15----|--18(20)-------|
---11----18(20)---18(20)----18(20)-----------18----18-|---------------|
------------------------------------------------------|---------------|
------------------------------------------------------|---------------|
------------------------------------------------------|---------------|
------------------------------------------------------|---------------|

--18(20)__18--15--18(20)hold----|
--------------------------------|
--------------------------------|
--------------------------------|
--------------------------------|
--------------------------------|

Vamos capiche mierda
Comments