Misc Unsigned Bands - Four Disorder - Count Me Out Chords & Tabs

 

Four Disorder - Count Me Out Chords & Tabs

Misc Unsigned Bands Chords & Tabs

Version: 1 Type: Tab 0 ratings
1 star 2 stars 3 stars 4 stars 5 stars
comments

Four Disorder - Count Me Out Tab

   
-----------------------------------------------------------------------------
			     Count Me Out - Four Disorder(new)
-----------------------------------------------------------------------------
Tabbed by:DREW WARD THE GUY THAT SUX AT GUITAR
Email: punk_a_delic@hotmail.com

Tuning: EADGBE

Intro bit /bass

e|-----------|----------------------------------------|
B|-----------|----------------------------------------|
G|-----------|----------------------------------------|
D|--2--------|----------------------------------------|
A|--2--------|----------------------------------------|
E|--0--------|-------hold E minor for 2 bars----------|

 INTRO 2
e|-------------------------------------------------------|
B|-------------------------------------------------------|
G|--12--11--9-9-9--7-7-7--9-9-9---12--11--9-9-9--14--7---|  X2
D|--12--11--9-9-9--7-7-7--9-9-9---12--11--9-9-9--14--7---|
A|--10--9---7-7-7--5-5-5--7-7-7---10--9---7-7-7--12--5---|
E|-------------------------------------------------------|
   VERSE 1
e|---------------------------------------------------|
B|---------------------------------------------------|
G|--------------5--------------------------7---------|  X2
D|--2-----------5----------------5---------7---------|
A|--2-----------3-------2--------5---------5---------|
E|--0-------------------3--------3-------------------|

  VERSE 2
e|-----------------------------------------------|          
B|-----------------------------------------------|
G|---------9---5-5-5-5------------------7--7-----|  X4  
D|--2--2---9---5-5-5-5-----------5--5---7--7-----|
A|--2--2---7---3-3-3-3--3-3-3-3--5--5---5--5-----|
E|--0--0----------------2-2-2-2--3--3------------|

 THEN PLAY THE INTRO 2 BIT TWO TIMES
 GUITAR STOPS AND ITS JUST THE BASS AND DRUMS AND ROHIN SINGING..YER U GO ROHIN
 PLAY VERSE ONCE AND THEN VERSE 2 THREE TIMES
 PLAY VERSE 1 SLOWER AND STRUMMING THE CHORDS
[ Tab from: http://www.guitartabs.cc/tabs/m/misc_unsigned_bands/four_disorder_count_me_out_tab.html ]
  COOL PART
e|-------------------------------------------------------|
B|-------------------------------------------------------|
G|-------------------------------------------------------| X4
D|----------------------5-4-2-------------------5-4-2-4~-|
A|-----------0-2-2--2-3-------5-3-2h3p2--5--4-2----------|
E|-0~0-0-2-3---------------------------3-----------------|


   I DONT KNOW ABOUT THIS BIT... COULDNT FIGURE IT OUT...GUITAR 1
e|--------------------------------------------------------|
B|--------------------------------------------------------|
G|--------------------------------------------------------|
D|--------------------------------------------------------| x4
A|-14-14-14-12-14-14-14-12-14-14-14-12-15-14-12-14p12h14--|
E|--------------------------------------------------------|

   AFTER 2 TIMES OF THE 1st GUITAR THE SECOND GUITAR COMES IN

e|--14-14-14-12--14--14--12--14--14-14-12-15--14-12--12--|
B|-------------------------------------------------------| 
G|-------------------------------------------------------| x2
D|-------------------------------------------------------|
A|-------------------------------------------------------|
E|-------------------------------------------------------|

e|--------------------------------------------------------------|
B|--------------------------------------------------------------|
G|------------------5--------5--5--5--5--------------------7--7-|
D|--2----2-----2----5--------5--5--5--5----------------5---7--7-|
A|--2----2-----2----3---x2---3--3--3--3---3--3-3-3--5--5---5--5-|
E|--0----0-----0--------------------------2--2-2-2--3--3--------|
 
 VERSE 1 x2
 VERSE 2 x4

 THEN THE I DONT KNOW ABOUT THIS BIT x1
 YOU CAN FIGURE OUT ALL THE TIMING AND STRUMMING PATARNS YOURSELF

 THIS TAB IS LIKE REALLY WRONG BUT WHO GIVES...
 FOUR DISORDER ROCK. SHIT ON A STICK.Y YES THAT IS.
 TABBED BY DREW WARD

| /  slide up
| \  slide down
| h  hammer-on
| p  pull-off
| ~  vibrato
| +  harmonic
| x  Mute note
===============================================================================
Comments