Misc Unsigned Bands - Fossil Fuel - Nerds Vs Jocks Chords & Tabs

 

Fossil Fuel - Nerds Vs Jocks Chords & Tabs

Misc Unsigned Bands Chords & Tabs

Version: 1 Type: Tab 0 ratings
1 star 2 stars 3 stars 4 stars 5 stars
comments

Fossil Fuel - Nerds Vs Jocks Tab

This band is lesser know but a great band, this song is great to learn it has an
interesting rythem, but feel free to make your own. i didnt find any fossil fuel
tab on the internet so i thought i would make one for people to learn.

Tabbed and written by: Tony Ball
Email: Tonyjamesball@hotmail.com
tunning: normal EADGBe

~ = let ring

Intro

|------------------------|
|------1-----------1-----|
|----2---2-------2---2---|
|--2-------2---2-------2-|
|0-----------0-----------|
|------------------------|

|------------------------|
|------1-----------1-----|
|----2---2-------2---2---|
|--2-------2---2-------2-|
|------------------------|
|3-----------3-----------|

|------------------------|
|------1-----------1-----|
|----2---2-------2---2---|
|--2-------2---2-------2-|
|------------------------|
|1-----------1-----------|

|------------0-----------|
|------0---0---0---0-----|
|----2---2-------2---2---|
|--2-------------------2-|
|------------------------|
|0-----------------------|

|------------------------|
|------1-----------1-----|
|----2---2-------2---2---|
|--2-------2---2-------2-|
|0-----------0-----------|
|------------------------|

|------------------------|
|------1-----------1-----|
|----2---2-------2---2---|
|--2-------2---2-------2-|
|------------------------|
|3-----------3-----------|

|------------------------|
|------1-----------1-----|
|----2---2-------2---2---|
|--2-------2---2-------2-|
|------------------------|
|1-----------1-----------|

|------------0~~~~~------|
|------0---0-------------|
|----2---2---------------|
|--2---------------------|
|------------------------|
|0-----------------------|

Heavy distortion:

|-----------------------------|
|-----------------------------|
|-----------------------------|
|7-7-xxx-5-5-xxx-3-33-3-2-22-2|
|7-7-xxx-5-5-xxx-3-33-3-2-22-2|
|5-5-xxx-3-3-xxx-1-11-1-0-00-0|

|-----------------------------|
|-----------------------------|
|-----------------------------|
|7-7-xxx-5-5-xxx-3-33-3-3-33-3|
|7-7-xxx-5-5-xxx-3-33-3-3-33-3|
|5-5-xxx-3-3-xxx-1-11-1-1-11-1|

|-----------------------------|
|-----------------------------|
|-----------------------------|
|7-7-xxx-5-5-xxx-3-33-3-2-22-2|
|7-7-xxx-5-5-xxx-3-33-3-2-22-2|
|5-5-xxx-3-3-xxx-1-11-1-0-00-0|

|-----------------------------|
|-----------------------------|
|-----------------------------|
|7-7-xxx-5-5-xxx-3-33-3-3-33-5|
|7-7-xxx-5-5-xxx-3-33-3-3-33-5|
|5-5-xxx-3-3-xxx-1-11-1-1-11-3|

Lead-up:

|-----------------------------|
|-----------------------------|
|-----------------------------|
|7-77-7-7-77-7-7-77-7-7-------|
|7-77-7-7-77-7-7-77-7-7-------|
|5-55-5-5-55-5-7-55-5-5-------|

Verse 1 (clean palm muted)

|-----------------------------|
|-----------------------------|
|-----------------------------|
|7-7-xxx-5-5-xxx-3-33-3-2-22-2|
|7-7-xxx-5-5-xxx-3-33-3-2-22-2|
|5-5-xxx-3-3-xxx-1-11-1-0-00-0|

|-----------------------------|
|-----------------------------|
|-----------------------------|
|7-7-xxx-5-5-xxx-3-33-3-3-33-3|
|7-7-xxx-5-5-xxx-3-33-3-3-33-3|
|5-5-xxx-3-3-xxx-1-11-1-1-11-1|

|-----------------------------|
|-----------------------------|
|-----------------------------|
|7-7-xxx-5-5-xxx-3-33-3-2-22-2|
|7-7-xxx-5-5-xxx-3-33-3-2-22-2|
|5-5-xxx-3-3-xxx-1-11-1-0-00-0|

|-----------------------------|
|-----------------------------|
|-----------------------------|
|7-7-xxx-5-5-xxx-3-33-3-3-33-5|
|7-7-xxx-5-5-xxx-3-33-3-3-33-5|
|5-5-xxx-3-3-xxx-1-11-1-1-11-3|

Chorus: (heavy again)

|------------------------------------|
|------------------------------------|
|------------------------------------|
|10-10-10-10-5-5-5-5-8-8-8-8-3-3-3-3-|
|10-10-10-10-5-5-5-5-8-8-8-8-3-3-3-3-|
|8--8--8--8--3-3-3-3-6-6-6-6-1-1-1-1-|

|------------------------------------|
|------------------------------------|
|------------------------------------|
|10-10-10-10-5-5-5-5-8-8-8-8-8-8-8-8-|
|10-10-10-10-5-5-5-5-8-8-8-8-8-8-8-8-|
|8--8--8--8--3-3-3-3-6-6-6-6-6-6-6-6-|

|------------------------------------|
|------------------------------------|
|------------------------------------|
|10-10-10-10-5-5-5-5-8-8-8-8-3-3-3-3-|
|10-10-10-10-5-5-5-5-8-8-8-8-3-3-3-3-|
|8--8--8--8--3-3-3-3-6-6-6-6-1-1-1-1-|

|------------------------------------|
|------------------------------------|
|------------------------------------|
|10-10-10-10-5-5-5-5-8-8-8-8-8-8-8-8-|
|10-10-10-10-5-5-5-5-8-8-8-8-8-8-8-8-|
|8--8--8--8--3-3-3-3-6-6-6-6-6-6-6-6-|

interlude: (still heavy)

|-----------------------------|
|-----------------------------|
|-----------------------------|
|7-7-xxx-5-5-xxx-3-33-3-2-22-2|
|7-7-xxx-5-5-xxx-3-33-3-2-22-2|
|5-5-xxx-3-3-xxx-1-11-1-0-00-0|

|-----------------------------|
|-----------------------------|
|-----------------------------|
|7-7-xxx-5-5-xxx-3-33-3-3-33-3|
|7-7-xxx-5-5-xxx-3-33-3-3-33-3|
|5-5-xxx-3-3-xxx-1-11-1-1-11-1|

|-----------------------------|
|-----------------------------|
|-----------------------------|
|7-7-xxx-5-5-xxx-3-33-3-2-22-2|
|7-7-xxx-5-5-xxx-3-33-3-2-22-2|
|5-5-xxx-3-3-xxx-1-11-1-0-00-0|

|-----------------------------|
|-----------------------------|
|-----------------------------|
|7-7-xxx-5-5-xxx-3-33-3-3-33-5|
|7-7-xxx-5-5-xxx-3-33-3-3-33-5|
|5-5-xxx-3-3-xxx-1-11-1-1-11-3|

Lead-up:

|-----------------------------|
|-----------------------------|
|-----------------------------|
|7-77-7-7-77-7-7-77-7-7-------|
|7-77-7-7-77-7-7-77-7-7-------|
|5-55-5-5-55-5-7-55-5-5-------|

Verse 2 (clean palm-muted)

|-----------------------------|
|-----------------------------|
|-----------------------------|
|7-7-xxx-5-5-xxx-3-33-3-2-22-2|
|7-7-xxx-5-5-xxx-3-33-3-2-22-2|
|5-5-xxx-3-3-xxx-1-11-1-0-00-0|

|-----------------------------|
|-----------------------------|
|-----------------------------|
|7-7-xxx-5-5-xxx-3-33-3-3-33-3|
|7-7-xxx-5-5-xxx-3-33-3-3-33-3|
|5-5-xxx-3-3-xxx-1-11-1-1-11-1|

|-----------------------------|
|-----------------------------|
|-----------------------------|
|7-7-xxx-5-5-xxx-3-33-3-2-22-2|
|7-7-xxx-5-5-xxx-3-33-3-2-22-2|
|5-5-xxx-3-3-xxx-1-11-1-0-00-0|

|-----------------------------|
|-----------------------------|
|-----------------------------|
|7-7-xxx-5-5-xxx-3-33-3-3-33-5|
|7-7-xxx-5-5-xxx-3-33-3-3-33-5|
|5-5-xxx-3-3-xxx-1-11-1-1-11-3|

Chorus: (heavy again)

|------------------------------------|
|------------------------------------|
|------------------------------------|
|10-10-10-10-5-5-5-5-8-8-8-8-3-3-3-3-|
|10-10-10-10-5-5-5-5-8-8-8-8-3-3-3-3-|
|8--8--8--8--3-3-3-3-6-6-6-6-1-1-1-1-|

|------------------------------------|
|------------------------------------|
|------------------------------------|
|10-10-10-10-5-5-5-5-8-8-8-8-8-8-8-8-|
|10-10-10-10-5-5-5-5-8-8-8-8-8-8-8-8-|
|8--8--8--8--3-3-3-3-6-6-6-6-6-6-6-6-|
[ Tab from: http://www.guitartabs.cc/tabs/m/misc_unsigned_bands/fossil_fuel_nerds_vs_jocks_tab.html ]
|------------------------------------|
|------------------------------------|
|------------------------------------|
|10-10-10-10-5-5-5-5-8-8-8-8-3-3-3-3-|
|10-10-10-10-5-5-5-5-8-8-8-8-3-3-3-3-|
|8--8--8--8--3-3-3-3-6-6-6-6-1-1-1-1-|

|------------------------------------|
|------------------------------------|
|------------------------------------|
|10-10-10-10-5-5-5-5-8-8-8-8-8-8-8-8-|
|10-10-10-10-5-5-5-5-8-8-8-8-8-8-8-8-|
|8--8--8--8--3-3-3-3-6-6-6-6-6-6-6-6-|

interlude: (still heavy)

|-----------------------------|
|-----------------------------|
|-----------------------------|
|7-7-xxx-5-5-xxx-3-33-3-2-22-2|
|7-7-xxx-5-5-xxx-3-33-3-2-22-2|
|5-5-xxx-3-3-xxx-1-11-1-0-00-0|

|-----------------------------|
|-----------------------------|
|-----------------------------|
|7-7-xxx-5-5-xxx-3-33-3-3-33-3|
|7-7-xxx-5-5-xxx-3-33-3-3-33-3|
|5-5-xxx-3-3-xxx-1-11-1-1-11-1|

|-----------------------------|
|-----------------------------|
|-----------------------------|
|7-7-xxx-5-5-xxx-3-33-3-2-22-2|
|7-7-xxx-5-5-xxx-3-33-3-2-22-2|
|5-5-xxx-3-3-xxx-1-11-1-0-00-0|

|-----------------------------|
|-----------------------------|
|-----------------------------|
|7-7-xxx-5-5-xxx-3-33-3-3-33-5|
|7-7-xxx-5-5-xxx-3-33-3-3-33-5|
|5-5-xxx-3-3-xxx-1-11-1-1-11-3|

Lead-up:

|-----------------------------|
|-----------------------------|
|-----------------------------|
|7-77-7-7-77-7-7-77-7-7-------|
|7-77-7-7-77-7-7-77-7-7-------|
|5-55-5-5-55-5-7-55-5-5-------|

Verse 3 (clean palm-muted)

|-----------------------------|
|-----------------------------|
|-----------------------------|
|7-7-xxx-5-5-xxx-3-33-3-2-22-2|
|7-7-xxx-5-5-xxx-3-33-3-2-22-2|
|5-5-xxx-3-3-xxx-1-11-1-0-00-0|

|-----------------------------|
|-----------------------------|
|-----------------------------|
|7-7-xxx-5-5-xxx-3-33-3-3-33-3|
|7-7-xxx-5-5-xxx-3-33-3-3-33-3|
|5-5-xxx-3-3-xxx-1-11-1-1-11-1|

|-----------------------------|
|-----------------------------|
|-----------------------------|
|7-7-xxx-5-5-xxx-3-33-3-2-22-2|
|7-7-xxx-5-5-xxx-3-33-3-2-22-2|
|5-5-xxx-3-3-xxx-1-11-1-0-00-0|

|-----------------------------|
|-----------------------------|
|-----------------------------|
|7-7-xxx-5-5-xxx-3-33-3-3-33-5|
|7-7-xxx-5-5-xxx-3-33-3-3-33-5|
|5-5-xxx-3-3-xxx-1-11-1-1-11-3|

Chorus: (heavy again)

|------------------------------------|
|------------------------------------|
|------------------------------------|
|10-10-10-10-5-5-5-5-8-8-8-8-3-3-3-3-|
|10-10-10-10-5-5-5-5-8-8-8-8-3-3-3-3-|
|8--8--8--8--3-3-3-3-6-6-6-6-1-1-1-1-|

|------------------------------------|
|------------------------------------|
|------------------------------------|
|10-10-10-10-5-5-5-5-8-8-8-8-8-8-8-8-|
|10-10-10-10-5-5-5-5-8-8-8-8-8-8-8-8-|
|8--8--8--8--3-3-3-3-6-6-6-6-6-6-6-6-|

|------------------------------------|
|------------------------------------|
|------------------------------------|
|10-10-10-10-5-5-5-5-8-8-8-8-3-3-3-3-|
|10-10-10-10-5-5-5-5-8-8-8-8-3-3-3-3-|
|8--8--8--8--3-3-3-3-6-6-6-6-1-1-1-1-|

|------------------------------------|
|------------------------------------|
|------------------------------------|
|10-10-10-10-5-5-5-5-8-8-8-8-8-8-8-8-|
|10-10-10-10-5-5-5-5-8-8-8-8-8-8-8-8-|
|8--8--8--8--3-3-3-3-6-6-6-6-6-6-6-6-|

interlude: (still heavy)

|-----------------------------|
|-----------------------------|
|-----------------------------|
|7-7-xxx-5-5-xxx-3-33-3-2-22-2|
|7-7-xxx-5-5-xxx-3-33-3-2-22-2|
|5-5-xxx-3-3-xxx-1-11-1-0-00-0|

|-----------------------------|
|-----------------------------|
|-----------------------------|
|7-7-xxx-5-5-xxx-3-33-3-3-33-3|
|7-7-xxx-5-5-xxx-3-33-3-3-33-3|
|5-5-xxx-3-3-xxx-1-11-1-1-11-1|

|-----------------------------|
|-----------------------------|
|-----------------------------|
|7-7-xxx-5-5-xxx-3-33-3-2-22-2|
|7-7-xxx-5-5-xxx-3-33-3-2-22-2|
|5-5-xxx-3-3-xxx-1-11-1-0-00-0|

|-----------------------------|
|-----------------------------|
|-----------------------------|
|7-7-xxx-5-5-xxx-3-33-3-3-33-5|
|7-7-xxx-5-5-xxx-3-33-3-3-33-5|
|5-5-xxx-3-3-xxx-1-11-1-1-11-3|

Lead-up:

|-----------------------------|
|-----------------------------|
|-----------------------------|
|7-77-7-7-77-7-7-77-7-7-------|
|7-77-7-7-77-7-7-77-7-7-------|
|5-55-5-5-55-5-7-55-5-5-------|

Verse 4 (heavy climax)

|-----------------------------|
|-----------------------------|
|-----------------------------|
|7-7-xxx-5-5-xxx-3-33-3-2-22-2|
|7-7-xxx-5-5-xxx-3-33-3-2-22-2|
|5-5-xxx-3-3-xxx-1-11-1-0-00-0|

|-----------------------------|
|-----------------------------|
|-----------------------------|
|7-7-xxx-5-5-xxx-3-33-3-3-33-3|
|7-7-xxx-5-5-xxx-3-33-3-3-33-3|
|5-5-xxx-3-3-xxx-1-11-1-1-11-1|

|-----------------------------|
|-----------------------------|
|-----------------------------|
|7-7-xxx-5-5-xxx-3-33-3-2-22-2|
|7-7-xxx-5-5-xxx-3-33-3-2-22-2|
|5-5-xxx-3-3-xxx-1-11-1-0-00-0|

|-----------------------------|
|-----------------------------|
|-----------------------------|
|7-7-xxx-5-5-xxx-3-33-3-3-33-5|
|7-7-xxx-5-5-xxx-3-33-3-3-33-5|
|5-5-xxx-3-3-xxx-1-11-1-1-11-3|

Chorus: (heavy again)

|------------------------------------|
|------------------------------------|
|------------------------------------|
|10-10-10-10-5-5-5-5-8-8-8-8-3-3-3-3-|
|10-10-10-10-5-5-5-5-8-8-8-8-3-3-3-3-|
|8--8--8--8--3-3-3-3-6-6-6-6-1-1-1-1-|

|------------------------------------|
|------------------------------------|
|------------------------------------|
|10-10-10-10-5-5-5-5-8-8-8-8-8-8-8-8-|
|10-10-10-10-5-5-5-5-8-8-8-8-8-8-8-8-|
|8--8--8--8--3-3-3-3-6-6-6-6-6-6-6-6-|

|------------------------------------|
|------------------------------------|
|------------------------------------|
|10-10-10-10-5-5-5-5-8-8-8-8-3-3-3-3-|
|10-10-10-10-5-5-5-5-8-8-8-8-3-3-3-3-|
|8--8--8--8--3-3-3-3-6-6-6-6-1-1-1-1-|

|------------------------------------|
|------------------------------------|
|------------------------------------|
|10-10-10-10-5-5-5-5-8-8-8-8-8-8-8-8-|
|10-10-10-10-5-5-5-5-8-8-8-8-8-8-8-8-|
|8--8--8--8--3-3-3-3-6-6-6-6-6-6-6-6-|

interlude: (still heavy)

|-----------------------------|
|-----------------------------|
|-----------------------------|
|7-7-xxx-5-5-xxx-3-33-3-2-22-2|
|7-7-xxx-5-5-xxx-3-33-3-2-22-2|
|5-5-xxx-3-3-xxx-1-11-1-0-00-0|

|-----------------------------|
|-----------------------------|
|-----------------------------|
|7-7-xxx-5-5-xxx-3-33-3-3-33-3|
|7-7-xxx-5-5-xxx-3-33-3-3-33-3|
|5-5-xxx-3-3-xxx-1-11-1-1-11-1|

|-----------------------------|
|-----------------------------|
|-----------------------------|
|7-7-xxx-5-5-xxx-3-33-3-2-22-2|
|7-7-xxx-5-5-xxx-3-33-3-2-22-2|
|5-5-xxx-3-3-xxx-1-11-1-0-00-0|

|-----------------------------|
|-----------------------------|
|-----------------------------|
|7-7-xxx-5-5-xxx-3-33-3-3-33-5|
|7-7-xxx-5-5-xxx-3-33-3-3-33-5|
|5-5-xxx-3-3-xxx-1-11-1-1-11-3|

Outro:

|-----------------------------|
|-----------------------------|
|-----------------------------|
|7-77-7-7-77-7-7-77-7-7-------|
|7-77-7-7-77-7-7-77-7-7-------|
|5-55-5-5-55-5-7-55-5-5-------|
Comments