Misc Unsigned Bands - Forgive Durden - Im A Sucker For Fakes Chords & Tabs

 

Forgive Durden - Im A Sucker For Fakes Chords & Tabs

Misc Unsigned Bands Chords & Tabs

Version: 1 Type: Tab 0 ratings
1 star 2 stars 3 stars 4 stars 5 stars
comments

Forgive Durden - Im A Sucker For Fakes Tab

Forgive Durden- I'm A Sucker For Fakes

Tabbed by: Kittie :)
Email: kittiesetsfire@hotmail.com

Forgive Durden are a relly great band and everyone and their mom should check them out 
http://www.purevolume.com/forgivedurden


Tuning: Standard

x :palm muted


Intro

e|--------------------------------------------------------------------------|
B|---5-----3-----5-----1----------------------------------------------------|
G|--0-0---0-0---0-0---0-----------------------------------------------------|
D|--------------------------------------------------------------------------|
A|-3-----1-----0-----0------------------------------------------------------|
E|--------------------------------------------------------------------------|

Verse

                                   (Then the fourth time you play this)
e|----------------------------|---------------------------------------------|
B|---5-----3-----5-----1------|---5-----3-----------------------------------|
G|--0-0---0-0---0-0---0-------|--0-0---0-0----------------------------------|
D|----------------------------|-------------333-555-------------------------|
A|-3-----1-----0-----0---(x3)-|-3-----1-----333-555-------------------------|
E|----------------------------|-------------111-333-------------------------|

Chorus
[ Tab from: http://www.guitartabs.cc/tabs/m/misc_unsigned_bands/forgive_durden_im_a_sucker_for_fakes_tab.html ]
      (Two's, not 22's)
             \/
e|---------2222222----------------------------------------------------------|
B|---------2222222----------------------------------------------------------|
G|-5555555------------------------------------------------------------------|
D|-5555555-2222222-3333333-3333-5555555-------(x2)--------------------------|
A|-3333333-2222222-3333333-3333-5555555-------------------------------------|
E|-------------------------1111-3333333-------------------------------------|

Bridge (Played after second chorus)

e|--------2222222----------------2222222------------------------------------|
B|--------2222222----------------2222222------------------------------------|
G|-555555-------------------------------------------------------------------|
D|-555555-2222222-3333333-333333-2222222-3333333-5555555--------------------|
A|-333333-2222222-3333333-333333-2222222-3333333-5555555--------------------|
E|------------------------111111-----------------3333333--------------------|
   xxxxxx

(Bridge Continued)
e|-----------2---22222------------------------------------------------------|
B|-----------2---22222------------------------------------------------------|
G|--------------------------------------------------------------------------|
D|-5---55555-2---22222-3---33333-333333-555555-------(x2)-------------------|
A|-5---55555-2---22222-3---33333-333333-555555------------------------------|
E|-3---33333---------------------111111-333333------------------------------|
(you only repeat this part of the bridge, not the first part)


Outro

e|--------------------------------------------------------------------------|
B|---5-----3-----5-----1----------------------------------------------------|
G|--0-0---0-0---0-0---0-----------------------------------------------------|
D|--------------------------------------------------------------------------|
A|-3-----1-----0-----0------------------------------------------------------|
E|--------------------------------------------------------------------------|
(you repeat this untill the end of the song)


Enjoy:)
Comments