Misc Unsigned Bands - Forever Eternal - Jube Jells Chords & Tabs

 

Forever Eternal - Jube Jells Chords & Tabs

Misc Unsigned Bands Chords & Tabs

Version: 1 Type: Bass Tab 0 ratings
1 star 2 stars 3 stars 4 stars 5 stars
comments

Forever Eternal - Jube Jells Bass Tab

   
Tabed by: Will F.
ya34 hotmail.com

This a new band in Tacoma, We hope u like this tab

Intro
G)-----------------------------------------------------------|
D)-----------------------------------------------------------|
A)-----2-0-----------2-0------------2-0-------------2-0------|
E)-0-3----0-3-5--0-3-----5-3-0--0-3-----0-3-5-0--0-3---3-7-0-|
[ Tab from: http://www.guitartabs.cc/tabs/m/misc_unsigned_bands/forever_eternal_jube_jells_btab.html ]
Verse
G)------------------------|
D)------------------------|
A)------------------------| x2
E)0-0-2-0-0-5-0-0-2-0-0-0-|

Chous
G)----------------------------------------------|
D)----------------------------------------------|
A)----------------------------------------------|
E)0-0-3-3-3-5-5-5-0-0-3-3-3-5-5-5-0-7-3-5-3-5-3-|

Hope u like this Tab
Comments