Misc Unsigned Bands - Ferris - Too Much Music Chords & Tabs

 

Ferris - Too Much Music Chords & Tabs

Misc Unsigned Bands Chords & Tabs

Version: 1 Type: Tab 0 ratings
1 star 2 stars 3 stars 4 stars 5 stars
comments

Ferris - Too Much Music Tab

   
			     too much music -  ferris
-------------------------------------------------------------------------------
Tabbed by:Ferris04
Email:

Tuning:EADGBe- its standard baby!!


e|-0H1P0----------------4-5-5/7--5H7P5--4---4---------10H12P10----10-10-|
B|-------3--1--3-3/5--6-------------------6---5-5/12-----------12-------|
G|----------------------------------------------------------------------|
D|----------------------------------------------------------------------|
A|----------------------------------------------------------------------|
E|----------------------------------------------------------------------|

e|-9-9-7-7-6H7P6--------0--0H2------4-2----3P2P0--------0---|
B|---------------------2-------4/5------3--------------0----|
G|--------------------0-------------------------------1-----|
D|-------------------2-------------------------------2------|
A|------------------0-------------------------------2-------|
E|-----------------0-------------------------------0--------|

   d           c                d           c
e|-3----------------------------3-----------------------------|
B|-2-----------1------0---------2-----------1------1----------| X 2
G|---2-------------0-------0------2-------------0-------0-----|
D|-0----3-2-0----2-------0---0--0----3-2-0----2-------0---0---|
A|-------------3------2---------------------3------2----------|
E|------------------------------------------------------------|

e|------------------------------------------------------------------|
B|-1----------------1--------------3---------------1------1---- X 2-|
G|-----2----------------0--------------0---------------2------0-----|
D|---3----2H3P2-0-----2--------------0---------------3------2-------|
A|-0----------------3-----3-3-2-0--2------2H2P2-0--0------3---------|
E|------------------------------------------------------------------|
[ Tab from: http://www.guitartabs.cc/tabs/m/misc_unsigned_bands/ferris_too_much_music_tab.html ]
e|-3------------------------------------3---------------0-------|
B|-----------3-------5---------5H6P5-------------3------1-------|
G|-----0----------0-------0----------0------0--------0------0---|
D|--------------0-------0---------------------------0------0----|
A|---2---2---2-------3------3--3----------2---2--2------3-------|
E|-3------------------------------------3-----------------------|

e|-0----0-|  X 2
B|-1----1-|
G|--------|
D|---0----|
A|-2----0-|
E|--------|

e|---------3-------2------2----2----2------------3--------------|
B|-0---------0-------0-----3----3----3---0--------0----1--------|
G|-----0-------------------------------------0-------------0----|
D|---2-------------------------------------2-------------2------|
A|-2----2-------2-------2-----2---2------2-----2----2--3-----3--|
E|--------------------------------------------------------------|

e|-----------|
B|-3---------|  X 2
G|------0----|
D|----4---4--|
A|-5---------|
E|-----------|

e|--------------------------------------|
B|-----1--------0--------0------0-------|    X 4
G|---2---2----0---0----0----1-----1-----|
D|-------------------2--------0---------|
A|-0--------2---------------------------|
E|--------------------------------------|

e|--------------------------------- ----------------------------|
B|-----1-----1----1------1-------X4 ----3----3---3----3---------|  X4
G|---0-----0----0------0----0------ ---3----2---0----0----0-----|
D|-------------------3----2---0---- -0----0---0---------2---0---|
A|-3-----2-----0------------------- ---------------3------------|
E|--------------------------------- ----------------------------|

e|--------------------------------- ------------------------------------0--|
B|-----1-----1----1------1-------X4 ----3---3---3---3---------3--3--3--3-3-|
G|---0-----0----0------0----0------ ---3---2---0---0---0-----3--2--0-------|
D|-------------------3----2---0---- -0----0---0---3---2--0--0--0--0---3----|
A|-3-----2-----0------------------- ---------------------------------------|
E|--------------------------------- ---------------------------------------|

e|---------|
B|---------|
G|---0-----|
D|-2---0---|
A|---------|
E|---------|

e|--------------------------------------|
B|-----1--------0--------0------0-------|    X 4
G|---2---2----0---0----0----1-----1-----|
D|-------------------2--------0---------|
A|-0--------2---------------------------|
E|--------------------------------------|

(finish on)
e|----0---------0H1P0-|
B|---1----------------|
G|--2-----------------|
D|-2------------------|
A|0-------------------|
E|--------------------|
Comments