Misc Unsigned Bands - Fellside - Here In Fall Chords & Tabs

 

Fellside - Here In Fall Chords & Tabs

Misc Unsigned Bands Chords & Tabs

Version: 1 Type: Bass Tab 0 ratings
1 star 2 stars 3 stars 4 stars 5 stars
comments

Fellside - Here In Fall Bass Tab

   
This is a song from a local band Dallas/Ft Worth, and can be found on
purevolume.com/fellside, i was bored so i thought i'd try and tab this
out.First tab, listen to song and rate please.

Drop D tuning 

Intro bass comes in around 00:14
G ----|
D ----|
A ----|
D -00-|

G --------------------------------------|
D --33~--5~--77~--5~--------------------|
A --------------------------------------|
D --------------------------------------|(x4)

Chorus 00:38
G --------------------------------------------------|
D --------------------------------------------------|
A --------------------------------------------------|
D -9-99-9h11-11-11-11-11-11-11-3-33-3h1-1-1-1-1-1-1-|(x4)

Verse 01:01
G -----------------------------------------------------|
D -----------------------------------------------------|
A ----------------------------3---2--------------------|
D -00000000000000/33333333-0h3-0h3---------------------|(x3)
on 3rd and time there is a small pause between sixth 0 and the seventh 0.

G ---------------------------------------|
D ---------------------------------------|
A ---------------------------------------|
D -00000000000000/33333333-0h3-3h5-0h3/1-|(x1)
there is a pause here between the sixth 0 and the seventh 0 also.

Chorus 1:26
G --------------------------------------------------|
D --------------------------------------------------|
A --------------------------------------------------|
D -9-99-9h11-11-11-11-11-11-11-3-33-3h1-1-1-1-1-1-1-|(x4)
[ Tab from: http://www.guitartabs.cc/tabs/m/misc_unsigned_bands/fellside_here_in_fall_btab.html ]
G ----------------------------|
D ----------------------------|
A ----------------------------|
D -5--3--1--1-1-1-------------|(X4)

G ---|
D ---|
A ---|
D -1-|

Intro 2:02
G ----|
D ----|
A ----|
D -00-|

G --------------------------------------|
D --33~--5~--77~--5~--------------------|
A --------------------------------------|
D --------------------------------------|(x4)

Chorus 2:31

G --------------------------------------------------|
D --------------------------------------------------|
A --------------------------------------------------|
D -9-99-9h11-11-11-11-11-11-11-3-33-3h1-1-1-1-1-1-1-|(x4)

G --------------------------------------------------|
D --------------------------------------------------|
A --------------------------------------------------|
D -9-99-9h11-pause-3-33-3h1-1-1-1-1-1-1-------------|(x1)

G --------------------------------------------------|
D --------------------------------------------------|
A --------------------------------------------------|
D -9-99-9h11-11-11-11-11-11-11-3-33-3h1-1-1-1-1-1-1-|(x1)

G ---------------------------------------------------|
D ---------------------------------------------------|
A ---------------------------------------------------|
D -9-99-9h11---9/---3-33-3h1-1-1-1-1-1-1-------------|(x1)

G --------------------------------------------------|
D --------------------------------------------------|
A --------------------------------------------------|
D -9-99-9h11-11-11-11-11-11-11-3-33-3h1-1-1-1-1-1-1-|(x1)

G ----------------------------|
D ----------------------------|
A ----------------------------|
D -5--3--1--1-1-1-------------|(X4)


thats it have fun playing it.hope its right :)

-A4stringmadman
Comments