Misc Unsigned Bands - Farley Experiment - If My Finger Was A Lute Chords & Tabs

 

Farley Experiment - If My Finger Was A Lute Chords & Tabs

Misc Unsigned Bands Chords & Tabs

Version: 1 Type: Tab 0 ratings
1 star 2 stars 3 stars 4 stars 5 stars
comments

Farley Experiment - If My Finger Was A Lute Tab

   
Band that started in 1999 with 4 members Jame Farley(lead guitar), Jhonny Parker(rhythm),
Kevin Wilson(base) and clio Wattson(Drums). Began their first official tour (homeland
tour of Ireland) in 2001 and ended it in late 2002. over almost 2 year period they played
in nearly 500 bars and clubs.   



RiffA
|--------5---------------3---------------5-----------|
|--5-7-8---8-7-5---3-5-6---6-5-3---5-7-8---8-7-5-----|
|----------------------------------------------------|
|----------------------------------------------------|
|----------------------------------------------------|
|----------------------------------------------------|


|-------5-3---------------7-5---------------5-3------|
|-3-5-6-----6-5-3---5-7-8-----8-7----3-5-6-----6-5-3-|
|----------------------------------------------------|
|----------------------------------------------------|
|----------------------------------------------------|
|----------------------------------------------------|

                  RiffB      
|-------7-5-----||-----------------------------------|
|-5-7-8-----8-7-||--3-5-6--3-5-6--3-5-6--3-5-6-------|
|---------------||-----------------------------------|
|---------------||-----------------------------------|
|---------------||-----------------------------------|
|---------------||-----------------------------------|


|-3-5-6--5-7-8---------------------------------------|
|----------------3-5-6--3-5-6--3-5-6--3-5-6--5-7-8---|
|----------------------------------------------------|
|----------------------------------------------------|
|----------------------------------------------------|
|----------------------------------------------------|

                        RiffC  
|--------3-5-6--5-7-8||--------------------------------|
|-5-7-8--------------||--------------------------------|
|--------------------||--------------------------------|
|--------------------||-0-5-0-5-0-5-0-5-0-7-0-7-0-7-0-7|
|--------------------||--------------------------------|
|--------------------||--------------------------------|
[ Tab from: http://www.guitartabs.cc/tabs/m/misc_unsigned_bands/farley_experiment_if_my_finger_was_a_lute_tab.html ]
                              RiffD
|---------------------------||-------5H7P---------3H5P-----|
|---------------------------||-5-7-8-----8--3-5-6-----6-5--|
|-----------------0-8/10-7/8||-----------------------------|
|-0-3-0-3-0-3-0-3-----------||-----------------------------|
|---------------------------||-----------------------------|
|---------------------------||-----------------------------|

                                 RiffE
|--------7H9P-----5-7---------||-9-11-12--9-11-12----------|
|-7-9-10------10------8--3-5--||---------------------------|
|----------------------------6||---------------------------|
|-----------------------------||---------------------------|
|-----------------------------||---------------------------|
|-----------------------------||---------------------------|


|------------------9-11-12-9-11-12-------------------|
|-9-11-12-9-11-12------------------------------------|
|-----------------------------------9-11-12----------|
|----------------------------------------------------|
|----------------------------------------------------|
|----------------------------------------------------|

           Riff(F)
|--------||--------------------------------------------|
|--------||-7-9-10-7-9-10-7-9-10-7-9-----7-9-10-7-9-10-|
|--------||--------------------------10----------------|
|-9-11-12||--------------------------------------------|
|--------||--------------------------------------------|
|--------||--------------------------------------------|

                  RiffG
|---------7-9---||-7-------5------3------1-------------|
|-7-9-10------10||---10-9----8-7----6-5----4-3---------|
|---------------||-------------------------------------|
|---------------||-------------------------------------|
|---------------||-------------------------------------|
|---------------||-------------------------------------|


|-------1--------|| RiffA=X1      RiffG=X1
|-1-0-1----4-3-1-|| RiffB=X4 
|----------------|| RiffC=X2
|----------------|| RiffD=X2
|----------------|| RiffE=X2
|----------------|| Riff(F)=X2
Comments