Misc Unsigned Bands - Fallen Sephera - Laceration Chords & Tabs

 

Fallen Sephera - Laceration Chords & Tabs

Misc Unsigned Bands Chords & Tabs

Version: 1 Type: Bass Tab

Fallen Sephera - Laceration Bass Tab

Another bass tab for my band...second song we wrote, and one we don't play much
anymore.
Band: Fallen Sephera
Song: Laceration
Standard Tuning.

alrighty here we go.

Opening...guitar only with some random cymbal crashes.
Then, play this when the guitar becomes distortioned.
it's a pretty slow tempo

this isn't the verse, and not the intro, so i call it:
intro 2.
[---------------------------------------------]
[-0-----1-----0-----3---0------1----------0---]
[---0-0---------0-0--------0-0------3-0-0-----]
[---------------------------------------------]
do that a few times, and then this:
[----------------------------------------------]
[-0-----1-----0-----3---0------1----------0-1--]
[---0-0---------0-0--------0-0------3-0-0------]
[----------------------------------------------]
let the last 1 ring for a little while and the drums give you 3 cymbal crashes. then go 
the main verse 1...which is this:
[---------------------------------------------]
[-0-0-0-1-3-1---0-0-0-6-4-3-------------------]
[---------------------------------------------]
[---------------------------------------------]

[---------------------------------------------]
[-0-0-0-1-3-1---0-0-0-6-4-3-------------------]
[---------------------------------------------]
[---------------------------------------------]
[ Tab from: http://www.guitartabs.cc/tabs/m/misc_unsigned_bands/fallen_sephera_laceration_btab.html ]
[---------------------------------------------]
[-0-0-0-1-3-1---0-0-0-6-4-3-------------------]
[---------------------------------------------]
[---------------------------------------------]

[---------------------------------------------]
[-0-0-0-1-3-1---0-0-0------13-12--------------]
[----------------------  12-----13------------]
[---------------------------------------------]

Playthat whole verse 1...once or twice...we play it different every time, so it doen'st 
too much how many times.

Then theres a guitar break for a few quick seconds and go in to verse 2. which is this:
[-----------------------------------------------]
[-0-0-0-0-0-0-0-0-0-1-3---0-0-0-0-0-0-0-0-0-6-5-]
[-----------------------------------------------]
[-----------------------------------------------]

[-------------------------------------------------]
[-0-0-0-0-0-0-0-0-0-1-3---0-0-0-0-0-0-6-5-3-5-6-5-]
[-------------------------------------------------]
[-------------------------------------------------]
Do that part 2 times and then go into the next part
which is this:
[---------------------------------------------------------------------------]
[---------9--------9-------10-------10--------9-------9------10------10-----]
[---------------------------------------------------------------------------]
[---0-0-0----0-0-0---0-0-0----0-0-0-----0-0-0---0-0-0---0-0-0---0-0-0-------]

then go into the verse 2 again.