Misc Unsigned Bands - Fallen Sephera - Falsified Entity Chords & Tabs

 

Fallen Sephera - Falsified Entity Chords & Tabs

Misc Unsigned Bands Chords & Tabs

Version: 1 Type: Bass Tab

Fallen Sephera - Falsified Entity Bass Tab

Band: Fallen Sephera
Song: Falsified Entity
This is my band. I’m the bassist and I’m going to tab out all of our songs.
Check us out at www.myspace.com/fallensephera

Standard tuning
You only need a 4 string, but i play a 5 anyway because that’s what I have.

Here we go

Intro

[--------------------------------------------]
[--------------------------------------------]
[-----------5~~~~~--let ring-----------------]
[---0-0-0------------------------------------]

Verse…the same verse is played the whole song.
[--------------------------------------------]
[--------------------------------------------]
[----------------10-8-7-8-7-5----------------]
[---0-0-0-0-0-0------------------------------]

[--------------------------------------------]
[--------------------------------------------]
[----------------10-8-7-8-7-5----------------]
[---0-0-0-0-0-0------------------------------]

[--------------------------------------------]
[--------------------------------------------]
[----------------10-8-7-8-7-5----------------]
[---0-0-0-0-0-0------------------------------]

[--------------------------------------------]
[--------------------------------------------]
[--------------------------------------------]
[---0-0-0-0-0-0---7-7-7-8-8-8----------------]

the whole thing (minus the intro) 2 times and then 2 more times with vocals
[ Tab from: http://www.guitartabs.cc/tabs/m/misc_unsigned_bands/fallen_sephera_falsified_entity_btab.html ]
bridge
[-----------------------------------------------------9--------10---]
[-------------------------------------------------------------------]
[-------12-10-12---------13-12-13-------12-10-12--------------------]
[-0-0-0------------0-0-0----------0-0-0---------0-0-0-----0-0-0-----]
that whole thing twice. Then into the little transition part which is as follows…
[-----------------------------------------------------------------------]
[-----------------------------------------------------------------------]
[-------------4~~~-----------5~~~-------------4~~~----------------------]
[--0-0-0-0---------0-0-0-0---------0-0-0-0----------0-0-0-0----0-0-0-0--]
(Twice)

[--------------------------------------------------------------]
[--------------------------------------------------------------]
[------4~~~~~~~~-----------------------------------------------]
[--------------------------------------------------------------]


sometimes i play this with the guitar, sometimes i just play the open notes on the D 
 you can pick.
[----------------------10-8-7-8-7-5-----------------10-8-7-5-8-7-----]
[---0-0-0-0-0-0---------------------0-0-0-0-0-0----------------------]
[--------------------------------------------------------------------]
[--------------------------------------------------------------------]

[----------------10-8-7-5-8-7-5-7-5-3-2----------------------------]
[-0-0-0-0-0-0------------------------------------------------------]
[------------------------------------------------------------------]
[------------------------------------------------------------------]

Then repeat whole verse again the same number of times
Followed by the bridge twice. And end song.
Thanks...it’s the first song we ever wrote and is pretty easy...as I go on, the songs 
harder because we got better at writing.