Misc Unsigned Bands - Faded Away - Suffocation Chords & Tabs

 

Faded Away - Suffocation Chords & Tabs

Misc Unsigned Bands Chords & Tabs

Version: 1 Type: Bass Tab 0 ratings
1 star 2 stars 3 stars 4 stars 5 stars
comments

Faded Away - Suffocation Bass Tab

THIS IS A new band from Warwick RI  heldransombass@yahoo.com

Hey this is my bands first song.- its easy but when its played with a guitar it sounds really cool

the intro and the first verse sound better with a pick.

Intro
G-----------------------------------------------------------|
D--12-12-12-12-12-12-12-13-13-13-13-13-13-14-14-14-14-14-14-| (etc.)
A-----------------------------------------------------------|
E-----------------------------------------------------------|

Verse 1
G-----------------------------------------|
D-----------------------------------------|
A--5-5-5-5-8-8-8-8-------5-5--------------| play this 3x
E------------------8-8-8------------------|
[ Tab from: http://www.guitartabs.cc/tabs/m/misc_unsigned_bands/faded_away_suffocation_btab.html ]
Chorus
G-------------------------------------------------------------|
D----------------------------------------------------12-12-12-|
A--------0-0-0-----------0-0-0------------0-0-4-0-0-4---------|
E--3-3-3--------12-12-12-------0-0-4-0-04---------------------|

Verse 2
G-----------------------------------------------------------|
D-1-1-1-1-1-1-1-1-1-------------------------0-0-0-0-0-0-0-0-|
A-------------------R----0-0-0-0-0-0-------5----------------|
E------------------------------------3-3-3-3----------------|

Chorus stays the same

Solo: its a really short one
G0-0-------------------------------------------------------|
D----------------------------------------------------------|
A---------------5h7-5h7-5h7-3h5-3h5-3h5--------------------|
E----5h7-5h7-5h7-------------------------------------------|

During Guitar solo play this
G----------------------------------------------------------|
D-1-1-1-1-1-1-1-1-1----------------------------------------|
A----------------------------------------------------------|
E--------------------0-0-0-0-0-0-3-0-0-0-0-0-0-3-----------|

then it does the intro again and the chorus once more and the song is done
Comments