Misc Unsigned Bands - Evans - The Friend Chords & Tabs

 

Evans - The Friend Chords & Tabs

Misc Unsigned Bands Chords & Tabs

Version: 1 Type: Tab 0 ratings
1 star 2 stars 3 stars 4 stars 5 stars
comments

Evans - The Friend Tab

Title: The friend
Group: Evans

Intro..

  Guitar 1
|-11--11--11--11h12-14-12-11----|
|---12--12--12--------------12-9|
|-------------------------------|
|-------------------------------|
|-------------------------------|
|-------------------------------|

..Continue to play first and second part until the intro stops


  Guitar 2
|-11--11--11--11h12-14-14-14-14--------|
|---12--12--12-----------------13-12-11|
|--------------------------------------|
|--------------------------------------|
|--------------------------------------|
|--------------------------------------|

..Then
 
 Guitar 1
|----------xx-----------------------------------------------xx-|
|----------xx-----------------------------------------------xx-|
|----------xx-11-12-12b-p11--11-12-12b-p11--11-12-12b-p11---xx-|
|-13131313-xx--------------13-------------13-------------13-xx-|
|-11111111-xx-----------------------------------------------xx-|
|----------xx-----------------------------------------------xx-|

|------------------------x---------------|
|------------------------x---------------|
|-1616161616161616161616-x-161616-16/1818|
|-1414141414141414141414-x-141414-14/1616|
|------------------------x---------------|
|------------------------x---------------|

Play The intro 3 Times!

Verse..

|----------xx-----------------------------------------------xx-|
|----------xx-----------------------------------------------xx-|
|----------xx-11-12-12b-p11--11-12-12b-p11--11-12-12b-p11---xx-|
|-13131313-xx--------------13-------------13-------------13-xx-|
|-11111111-xx-----------------------------------------------xx-|
|----------xx-----------------------------------------------xx-|

|------------------------x---------------|
|------------------------x---------------|
|-1616161616161616161616-x-161616-16/1818|
|-1414141414141414141414-x-141414-14/1616|
|------------------------x---------------|
|------------------------x---------------|

Chorus..
[ Tab from: http://www.guitartabs.cc/tabs/m/misc_unsigned_bands/evans_the_friend_tab.html ]
|------------------------------55-xx-5555-66-xx-6-66-6-x-0-33-xx-3-33333-|
|------------------------------55-xx-5555-66-xx-6-66-6-x-0-55-xx-5-55555-|
|-1212-xx-12b-1212-x-12b12b12b-77-xx-7777-66-xx-6-66-6-x-0-55-xx-5-55555-|
|-1010-xx-10--1010-x-101010----55-xx-5555-88-xx-8-88-8-x-0-33-xx-3-33333-|
|-1010-xx-10--1010-x-101010----55-xx-5555-66-xx-6-66-6-x-0-33-xx-3-33333-|
|------------------------------55-xx-5555-66-xx-6-66-6-x-0-33-xx-3-33333-|


Verse 1

They say memories ar golden; 
well maybe thats true 
I never wanted memories, 
I only wanted you. 

Verse 2

A million times I needed you, 
A million times I cried, 
If love alone could saved you, 
you never would have died. 

Chorus

YouŽll always be a part of me 
YouŽll always be my friend 
YouŽll always be the only one 
I love you until the end

YouŽll always be a part of me 
YouŽll always be my friend 
YouŽll always be the only one 
I love you until the end

Verse 3

In life I loved you dearly, 
In death I love you still, 
In my heart you hold a place 
that no one could never fill. 

Verse 4

If tears could build a stainway 
and heartache make a lane 
IŽd walk the path to heaven, 
and bring you back again!

Chorus

YouŽll always be a part of me 
YouŽll always be my friend 
YouŽll always be the only one 
I love you until the end

YouŽll always be a part of me 
YouŽll always be my friend 
YouŽll always be the only one 
I love you until the end

Verse 5

If you were leafs on my tree
i'd never let it die to be,
cause you are my friend to stay
PLEASE OBAY!!!

Chorus

YouŽll always be a part of me 
YouŽll always be my friend 
YouŽll always be the only one 
I love you until the end 

Chorus (x2)

outro..

|-----------------------------------|
|-----------------------------------|
|-15-13-12--------------------------|
|---------15-13-12------------------|
|-----------------15-13-12-10-12-13-|
|-----------------------------------|

Maid by Monta

//

This text and song has Copywright by "Evans"
Comments