Misc Unsigned Bands - Evans - Live On The Edge Chords & Tabs

 

Evans - Live On The Edge Chords & Tabs

Misc Unsigned Bands Chords & Tabs

Version: 1 Type: Tab 0 ratings
1 star 2 stars 3 stars 4 stars 5 stars
comments

Evans - Live On The Edge Tab

   
Title: Live on the edge
Group: Evans

Intro..

|-----------------------------------------------------------------8-|
|-------------------------------------------------------------------|
|-----------------------------------------------------------8-------|
|----12-------7-------10----------------------------------8---p10---|   x2
|-10----<>--5---<>--8----<>----10-------6-------8-------8-----------|
|----------------------------8----<>--4---<>--6---<>--8-----------8-|


Verse..

|-------xx-------x-------xx---------------xx-------x-------xx-------|
|-------xx-------x-------xx---------------xx-------x-------xx-------|
|-------xx-------x-7-777-xx--77777--------xx-------x-------xx-------|
|-9-999-xx-99999-x-7-777-xx--77777--7-777-xx-77777-x-5-555-xx-55555-|
|-9-999-xx-99999-x-5-555-xx--55555--7-777-xx-77777-x-5-555-xx-55555-|
|-7-777-xx-77777-x-------xx---------5-555-xx-55555-x-3-333-xx-33333-|


Chorus..

|--------------------------------------------------------------------|
|--------------------------------------------------------------------|
|---------------------------9-99-99-99-999---------------------------|
|-12-1212-1212-1212-121212--9-99-99-99-999--10-1010-1010-1010-101010-|
|-12-1212-1212-1212-121212--7-77-77-77-777--10-1010-1010-1010-101010-|
|-10-1010-1010-1010-101010-------------------8--8-8--8-8--8-8--8-8-8-|


Verse 1
[ Tab from: http://www.guitartabs.cc/tabs/m/misc_unsigned_bands/evans_live_on_the_edge_tab.html ]
My life is near crashing, I live on the edge.
I feel the fear above me, I can't run away.
These things can happen, to everyone i swear.
Pray to god, that it doesent come your way.
A sickness thought, about overdose, just to
think of it, it makes me wanna go to hell.

Chorus

To live on the edge, isn't a break.
For a better life, for a better time,
for a better world.

To live on the edge, isn't a break.
The girls think you're nuts and your
friends think, you're a pain in the ass.

Verse 2

I can't get out now, it's to late.
I might as well, take a joint by myself.
My life's getting colder.
Everything is just a mess, thinking to myself;
What will happen to me next.

Chorus

To live on the edge, isn't a break.
For a better life, for a better time,
for a better world.

To live on the edge, isn't a break.
To hear the fear within, it's just to
much for me, i'm all alone now.

Verse 3

Now i'm laying there, at the hospital.
Trying to fight for my life, surrounded
by sweet eighteens. I see them, but that's
precice, my eyes is shut, but i can still
see a glimt.

Chorus

To live on the edge, isn't a break.
For a better life, for a better time,
for a better world. Everything is just
a mess, thinking to myself; Would i die
or would i cry...

Chorus (x2)

Outro..

|------------------------------------|
|-------5----------------------------|
|---7-----7-------5---3h5-5bp3-3/5\3-|
|-----7-----7/------5----------5/7\5-|
|-5---------5/--3--------------------|
|------------------------------------|

Means

<>      Harmonic Tones
h       Hammer on
p       Push
b       Bend
x       Mute
/       Slide up
\       Slide down
^       Vibrato
**      Tremolo


Maid by Monta

//

This text and song has Copyright by "Evans"
Comments