Misc Unsigned Bands - Ep - Fitrat Chords & Tabs

 

Ep - Fitrat Chords & Tabs

Misc Unsigned Bands Chords & Tabs

Version: 1 Type: Tab 0 ratings
1 star 2 stars 3 stars 4 stars 5 stars
comments

Ep - Fitrat Tab

   
Author/Artist: Ep
Title: Fitrat Guitar Solo
Transcribed by: daniyal
Email: daniyal100@hotmail.com


~~ Long Vibarato
 ~ Short Vibarato
 s Slide
( ) Legato Pick one note

Start Time (2:53)


e---------------------------------------------------------------------------------------|
B------9-10-9-7-----(7s10~~)----9-10-9-7s5------9-10-9-7-----(7s10~~)-10-10-10-10-10-10-|
G-9~~-----------10--------------------------9~-----------10-----------------------------|
D---------------------------------------------------------------------------------------|
A---------------------------------------------------------------------------------------|
E---------------------------------------------------------------------------------------|


e---------------------------------------------------------------------------------------|
B-10-10--9-9-7~--------7~~--10-10--8-8-(7h8p7)-7-7-7-(7s0)------------------------------|
G---------------9-8-9---------------------------------------8-9-8-----8-9-8-------------|
D------------------------------------------------------------------9---------9----------|
A---------------------------------------------------------------------------------------|
E---------------------------------------------------------------------------------------|
[ Tab from: http://www.guitartabs.cc/tabs/m/misc_unsigned_bands/ep_fitrat_tab.html ]
e----------------------------------------------------------------------------------------|
B-------------------------------10-10--9-9-7~--------7~~--10-10--8-8-[(7h8p7) Repeat4-5--| times]
G---------------------------------------------9-8-9--------------------------------------|
D-9h11p9-7~------------------------------------------------------------------------------|
A------------9-10-9-7-9-10-9-------------------------------------------------------------|
E----------------------------------------------------------------------------------------|


e----------------------------------------------------------------------|
B-----12-----10-----12-----10-----7------------------------------------|
G-8-9----8-9----8-9----8-9----8-9-----7-9-7---7-----(3s10~~)-10-10-10--|
D-------------------------------------------9---9-7--------------------|
A----------------------------------------------------------------------|
E----------------------------------------------------------------------|

e----------------------------------|
B------------------------7---------|
G--------------------8-9---9-8-----| Repeat 3 times
D-7-9-9-9-9-7h9-7-9------------9-7-|
A----------------------------------|
E----------------------------------|

e-12-12-12-12-12-12-12-12-11-12-14-12-11-------|
B-10-10-10-10-10-10-10-10----------------14-12-|
G----------------------------------------------|
D----------------------------------------------|
A----------------------------------------------|
E----------------------------------------------|

e----------------------------------|
B------------------------7---------|
G--------------------8-9---9-8-----| Repeat 2 times
D-7-9-9-9-9-7h9-7-9------------9-7-|
A----------------------------------|
E----------------------------------|

e---------------------------------------------------------------|
B--------------------------------------(5s10)-(5s8)-8-8-8-7~~---|
G-9-7----7------9-7----7-------9-7------------------------------|
D-----9----9-7------9----9-7-------9----------------------------|
A---------------------------------------------------------------|
E---------------------------------------------------------------|


A5 s B5 B5 - A5 s B5 B5- D5
Comments