Misc Unsigned Bands - Envoke - Tommorrow Chords & Tabs

 

Envoke - Tommorrow Chords & Tabs

Misc Unsigned Bands Chords & Tabs

Version: 1 Type: Tab

Envoke - Tommorrow Tab

   
Real punk style.
Tuning : E A D G B E

Intro

|-------------------------------------------------------------------|
|-------------------------------------------------------------------|
|-16-16-14-14-14-12-12-12-11-11-11-16-16-16-14-14-14-12-12-12-9-9-9-|
|-------------------------------------------------------------------|
|-14-14-12-12-12-10-10-10-9--9--9--14-14-14-12-12-12-10-10-10-7-7-7-|
|-------------------------------------------------------------------|

|----------------------------------------------------------------------|
|----------------------------------------------------------------------|
|-16-16-16-14-14-14-11-11-11-12-12-12-14-14-14-12-12-12-11-11-11-7-7-7-|
|----------------------------------------------------------------------|
|-14-14-14-12-12-12-9--9--9--10-10-10-12-12-12-10-10-10-9--9--9--5-5-5-|
|----------------------------------------------------------------------|

Verse
[ Tab from: http://www.guitartabs.cc/tabs/m/misc_unsigned_bands/envoke_tommorrow_tab.html ]
|-------------------------------------------------------------------|
|-----3-----3-----3-----3-----3-----3-----3-----3-----3-----3-----3-|
|---2-----2-----2-----2-----2-----2-----2-----2-----2-----2-----2---|
|-0-----0-----0-----2-----2-----2-----2-----4-----4-----4-----4-----|
|-------------------------------------------------------------------|
|-------------------------------------------------------------------|

|-------------------------|
|-----3-----3-----3-----3-|
|---2-----2-----2-----2---|
|-5-----5-----5-----5-----|
|-------------------------|
|-------------------------|

Chorus

|-11-12-11-12-11-12-7-7-7-7-7-7-7-11-12-11-12-11-12-5-5-7-7-7-7-7-|
|-11-12-11-12-11-12-7-7-7-7-7-7-7-11-12-11-12-11-12-5-5-7-7-7-7-7-|
|-11-12-11-12-11-12-7-7-7-7-7-7-7-11-12-11-12-11-12-5-5-7-7-7-7-7-|
|-11-12-11-12-11-12-7-7-7-7-7-7-7-11-12-11-12-11-12-5-5-7-7-7-7-7-|
|-11-12-11-12-11-12-7-7-7-7-7-7-7-11-12-11-12-11-12-5-5-7-7-7-7-7-|
|-11-12-11-12-11-12-7-7-7-7-7-7-7-11-12-11-12-11-12-5-5-7-7-7-7-7-|

|-11-12-11-12-11-12-7-7-9-9-9-9-9-5-5-5-5-5-7-7-|
|-11-12-11-12-11-12-7-7-9-9-9-9-9-5-5-5-5-5-7-7-|
|-11-12-11-12-11-12-7-7-9-9-9-9-9-5-5-5-5-5-7-7-|
|-11-12-11-12-11-12-7-7-9-9-9-9-9-5-5-5-5-5-7-7-|
|-11-12-11-12-11-12-7-7-9-9-9-9-9-5-5-5-5-5-7-7-|
|-11-12-11-12-11-12-7-7-9-9-9-9-9-5-5-5-5-5-7-7-|

Outro

|-5-5-5-5-5-5---5-5-5-5-5-5---5-5-5-5-5-5---5-5-5-5-5-7-0-|
|-5-5-5-5-5-5---5-5-5-5-5-5---5-5-5-5-5-5---5-5-5-5-5-7-0-|
|-5-5-5-5-5-5---5-5-5-5-5-5---5-5-5-5-5-5---5-5-5-5-5-7-0-|
|-5-5-5-5-5-5---5-5-5-5-5-5---5-5-5-5-5-5---5-5-5-5-5-7-0-|
|-5-5-5-5-5-5---5-5-5-5-5-5---5-5-5-5-5-5---5-5-5-5-5-7-0-|
|-5-5-5-5-5-5---5-5-5-5-5-5---5-5-5-5-5-5---5-5-5-5-5-7-0-|