Misc Unsigned Bands - Envirocides - Dirt Chords & Tabs

 

Envirocides - Dirt Chords & Tabs

Misc Unsigned Bands Chords & Tabs

Version: 1 Type: Tab 0 ratings
1 star 2 stars 3 stars 4 stars 5 stars
comments

Envirocides - Dirt Tab

New Artist
Intro
|-0---0--0-0-0-0--0---------------------------------------|
|-1-------------------------------------------------------|
|-3-2-5---------------------------------------------------|
|-13-12-14--16--------------------------------------------|
|---------------------------------------------------------|
|---------------------------------------------------------|
|---------------------------------------------------------|
Repeat 4x
Brige
|-0--0--0-0-0--0-0---------------------------------------|
|-10-9-x-x-x---------------------------------------------|
|-1-2-5-4-7-8-2------------------------------------------|
|-0-0-0-0-0-0-1------------------------------------------|
|--------------------------------------------------------|
|--------------------------------------------------------|
Repeat 1x
Pre Chourus
|-0-0-0-1-1-1-3-3-3-2-2-4-4------------------------------|
|-12-13-14-10-0-9----------------------------------------|
|-16-9-0-------------------------------------------------|
|-0-0-0 0-0-0 0-0-0 0-0 0-0------------------------------|
|-1-2--3-4-3-2-5-6 2-6-7-8- 3-5-4------------------------|
|--------------------------------------------------------|

|-0-0-9-9-8-6-7-5-4--12----------------------------------| Repeat 9x
|--------------------------------------------------------|
|--------------------------------------------------------|
|--------------------------------------------------------|
|--------------------------------------------------------|
|--------------------------------------------------------|
Chourus
|-o-o-10-10-5-5-3-3-0-3----------------------------------|
|--------------------------------------------------------|
|--------------------------------------------------------|
|--------------------------------------------------------|
|--------------------------------------------------------|
|--------------------------------------------------------|
End
By Brad Denney
[ Tab from: http://www.guitartabs.cc/tabs/m/misc_unsigned_bands/envirocides_dirt_tab.html ]
Comments