Misc Unsigned Bands - Envirocides - Bird House Rock Chords & Tabs

 

Envirocides - Bird House Rock Chords & Tabs

Misc Unsigned Bands Chords & Tabs

Version: 1 Type: Bass Tab 0 ratings
1 star 2 stars 3 stars 4 stars 5 stars
comments

Envirocides - Bird House Rock Bass Tab

                             Bird House Rock
                             The Envirocides
                              New Artists
Intro:
-----------------------------|
-----------------------------| x2
-----------------------------|
-3-3-4-4-4-4-5-5-5-5-4-4-----|
Pre Chourus:
-----------------------------|
-----------------------------| x4
-0-0-2-3-3-2-3-2-0-0---------|
-----------------------------|
Chourus:
--------------------------------|
--------------------------------| x3
-0-0-2-3--3-2--0--0-0-2-3-3-2-0-|
--------------------------------|
0utro
-2-------2-------------------|
---5-3-2---5-3-2-------------|
-----------------------------|
-----------------------------|
(Cokedenney)
[ Tab from: http://www.guitartabs.cc/tabs/m/misc_unsigned_bands/envirocides_bird_house_rock_btab.html ]
Comments