Misc Unsigned Bands - Edenwood - Edenwood Chords & Tabs

 

Edenwood - Edenwood Chords & Tabs

Misc Unsigned Bands Chords & Tabs

Version: 1 Type: Tab 0 ratings
1 star 2 stars 3 stars 4 stars 5 stars
comments

Edenwood - Edenwood Tab

   
THIS IS A NEW BAND FROM ROSELLE,IL USA GUITARIST IS SEAN RZEWNICKI

intro\CHOURUS   X4

  G5              C5            A5           D5       
E--------------------------------------------------------------------|
B--------------------------------------------------------------------|
G-----------------5--5--5-5-5-5---------------7--7--7-7-7-7----------|
A---5--5--5-5-5-5-5--5--5-5-5-5-7--7--7-7-7-7-7--7--7-7-7-7----------|
D---5--5--5-5-5-5-3--3--3-3-3-3-7--7--7-7-7-7-5--5--5-5-5-5----------|
E---3--3--3-3-3-3---------------5--5--5-5-5-5------------------------|

VERSE  X4
[ Tab from: http://www.guitartabs.cc/tabs/m/misc_unsigned_bands/edenwood_edenwood_tab.html ]
  G5             A5         D5            B5
E--------------------------------------------------------|
B--------------------------------------------------------|
G---------------------------7--7--7--7-7-----------------|
A---5--5--5--5--7--7--7--7--7--7--7--7-7--9--9--9--9-9---|
D---5--5--5--5--7--7--7--7--5--5--5--5-5--9--9--9--9-9---|
E---3--3--3--3--5--5--5--5----------------7--7--7--7-7---|

FORMAT
INTRO
VERSE1
CHOURUS
VERSE2
CHOURUS
VERSE3
CHOURUS
VERSE4
CHOURUS
OUTRO (SAME AS INTRO BUT ONLY PLAY 2 TIMES)

IF YOU LIKE THIS TAB OR HAVE QUESTIONS EMAIL ME AT SSHARKY7@AOL.COM
Comments