Misc Unsigned Bands - Easy Way Out - The Dragon Comes In The Night Tragdor Chords & Tabs

 

Easy Way Out - The Dragon Comes In The Night Tragdor Chords & Tabs

Misc Unsigned Bands Chords & Tabs

Version: 1 Type: Tab 0 ratings
1 star 2 stars 3 stars 4 stars 5 stars
comments

Easy Way Out - The Dragon Comes In The Night Tragdor Tab

Easy Way out is a gradge Band that noone knows about but wrote this song.

This is a easy song. It is 100% accurate so have fun with is.

Verse 1
1st Gautiar                                                          x3
-----------------------------------------------------------------------|
-----------------------------------------------------------------------|
-----------------------------------------------------------------------|
-----------------------------------------------------------------------|
------7/8/7--5--0------------------------------------------------------|
-----------------------------------------------------------------------|


Then after the 2nd Gautiar's 1st bridge swich to                     x3
-----------------------------------------------------------------------|
-----------------------------------------------------------------------|
-----------------------------------------------------------------------|
-----------------------------------------------------------------------|
------5/6/5--3---------------------------------------------------------|
----------------5------------------------------------------------------|

2nd Gautiar                 palmuted                                 x3
-----------------------------------------------------------------------|
-----------------------------------------------------------------------|
-----------------------------------------------------------------------|
----7-7-7-7-7-7-7-7-7-7-7-7-7-7-7-7-7-7-7-7----------------------------|
----7-7-7-7-7-7-7-7-7-7-7-7-7-7-7-7-7-7-7-7----------------------------|
----5-5-5-5-5-5-5-5-5-5-5-5-5-5-5-5-5-5-5-5----------------------------|

Bridge                                                             x1
-----------------------------------------------------------------------|
-----------------------------------------------------------------------|
-----7-----5-----------------------------------------------------------|
-----7-----5-----------------------------------------------------------|
-----5-----3-----------------------------------------------------------|
-----------------------------------------------------------------------|
                            palmuted  x3
                            ------------|
                            ------------|
                            ---x20------|
After the bridge swich to:  -5----------|
                            -5----------|
                            -3----------|
[ Tab from: http://www.guitartabs.cc/tabs/m/misc_unsigned_bands/easy_way_out_the_dragon_comes_in_the_night_tragdor_tab.html ]
Then swich to this next bridge
Bridge
----------------------------------------------------------------------|
----------------------------------------------------------------------|
-----7------5----7-----3----------------------------------------------|
-----7------5----7-----3----------------------------------------------|
-----5------3----9-----1----------------------------------------------|
----------------------------------------------------------------------|
After that bridge go to.

Verse 2
1st Gautiar                                                        x2
----------------------------------------------------------------------|
----------------------------------------------------------------------|
----7-7--9--5--------5-5--7--6----------------------------------------|
----------------------------------------------------------------------|
----------------------------------------------------------------------|
----------------------------------------------------------------------|

2nd Gautiar                                                         x2
----------------------------------------------------------------------|
----------------------------------------------------------------------|
----------------------------------------------------------------------|
----------7---7---7------5---5---5------------------------------------|
----------7---7---7------5---5---5------------------------------------|
----------5---5---5------3---3---3------------------------------------|

After that go back to verse 1 but 1st and 2nd Gautiars' only do each line 1 time, and 
2nd gautiar go to the last bridge of the verse.Then swich to the solo (optional) if u 
to have a solo u need to make it up, and after it is done play that last bridge again
and then go to the final verse.


Verse 3
1st Gautiar                                                          x1
-----------------------------------------------------------------------|
-----------------------------------------------------------------------|
-----------------------------------------------------------------------|
-----------------------------------------------------------------------|
----7/8/7--5/6/5--3/4/3------------------------------------------------|
-----------------------------------------------------------------------|

2nd Gautiar                                                          x1
-----------------------------------------------------------------------|
-----------------------------------------------------------------------|
-----------------------------------------------------------------------|
-------7------5-------3------7---fade----------------------------------|
-------7------5-------3------7-----------------------------------------|
-------5------3-------1------5-----------------------------------------|


Well thats the song i hope u can figure it out. Its an easy song so have funn with it !!
Comments