Misc Unsigned Bands - Dysfunction - Sweetness Of Hell Chords & Tabs

 

Dysfunction - Sweetness Of Hell Chords & Tabs

Misc Unsigned Bands Chords & Tabs

Version: 1 Type: Bass Tab

Dysfunction - Sweetness Of Hell Bass Tab

|-xxxxxxxx-xxxxxxxx-xxxxxxxxxxxxxxxx-|
|-xxxxxxxx-xxxxxxxx-xxxxxxxxxxxxxxxx-|
|-22222222-44444444-6666666666666666-|
|-00000000-22222222-4444444444444444-| x4

|-------|
|-------|
|-5~-3~-|
|-3~-1~-|

|-9b-----7-6-5-------|
|----9-7-------5-----|
|----------------5---|
|------------------0-|

|-xxxxxxxx-xxxxxxxx-xxxxxxxxxxxxxxxx-|
|-xxxxxxxx-xxxxxxxx-xxxxxxxxxxxxxxxx-|
|-22222222-44444444-6666666666666666-|
|-00000000-22222222-4444444444444444-| x4

|--------------|-----|
|--------------|-----|
|-(7h8p7-s10~)-|-12~-|
|--------------|-----|(the part in () u play 3 times)

|--8---8-9~--|-10-11-12----------|
|-o--8-----o-|----------12-11-10-|
|-o--------o-|-------------------|
|------------|-------------------| x2
[ Tab from: http://www.guitartabs.cc/tabs/m/misc_unsigned_bands/dysfunction_sweetness_of_hell_btab.html ]
|--------------|-----|
|--------------|-----|
|-(7h8p7-s10~)-|-12~-|
|--------------|-----|(the part in () u play 3 times)

|-2---2-3-4-3-2---2---2-3-4-3---|-2~-1~-0~-|
|---2-----------2---2---------2-|-2~-1~-0~-|
|-------------------------------|----------|
|-------------------------------|----------|

rhythym during solo
|-xxxxxxxxxxxxxxxxxxxxxxxxxxxxxxxxxxxxxxxxxxxxxxxxxxxxxx-|
|-xxxxxxxxxxxxxxxxxxxxxxxxxxxxxxxxxxxxxxxxxxxxxxxxxxxxxx-|
|-xxxxxxxxxxxxxxxxxxxxxxxxxxxxxxxxxxxxxxxxxxxxxxxxxxxxxx-|
|-xxxxxxxxxxxxxxxxxxxxxxxxxxxxxxxxxxxxxxxxxxxxxxxxxxxxxx-|

|---------------------------|
|---------------------------|
|-2--2-2~--4--4-4~--6--6-6~-|
|-0--0-0~--2--2-2~--4--4-4~-|

|-----------|
|-o-12-11-o-|
|-o--0--0-o-|
|-----------| repeat 4 times fading out for this last part(outro)