Misc Unsigned Bands - Dysfunction - Murdurous Children Chords & Tabs

 

Dysfunction - Murdurous Children Chords & Tabs

Misc Unsigned Bands Chords & Tabs

Version: 1 Type: Bass Tab

Dysfunction - Murdurous Children Bass Tab

GTR I-standard


|--------------------------------------------------|
|--------------------------------------------------|
|-0-1-0-2-0-1-0-2-0-1-0-2-0-1-0-2-0-1-0-2-0-1-0-2~-|
|-0-1-0-2-0-1-0-2-0-1-0-2-0-1-0-2-0-1-0-2-0-1-0-2~-|

|--------|
|--------|
|-5~--7~-|
|-3~--5~-|
[ Tab from: http://www.guitartabs.cc/tabs/m/misc_unsigned_bands/dysfunction_murdurous_children_btab.html ]
|-XXXXXXXXXXXXXXXXXXXXXXXXXXXXXXXXXXXX-|
|-XXXXXXXXXXXXXXXXXXXXXXXXXXXXXXXXXXXX-|
|-XXXXXXXXXXXXXXXXXXXXXXXXXXXXXXXXXXXX-|
|-XXXXXXXXXXXXXXXXXXXXXXXXXXXXXXXXXXXX-|

|-----------------------------------------------|
|-7b9-7-5-------5---5-7-7b9-5-------------------|
|---------7-5h7---7-----------7-----------------|
|-------------------------------5-5-5-5-5-5-5-5-|

|--------|
|--------|
|-5~--7~-|
|-3~--5~-|

|------------------------|
|------------------------|
|-0000000000000000000-0~-|
|------------------------|

note:This is the authors own work. please dont take it.