Misc Unsigned Bands - Duktil - Nunca Imagine Chords & Tabs

 

Duktil - Nunca Imagine Chords & Tabs

Misc Unsigned Bands Chords & Tabs

Version: 2 Type: Tab

Duktil - Nunca Imagine Tab

www.myspace.com/duktil

Duktil
Nunca Imagine (Tab)

Intro (x2)

|-----------------|-----------------|----------------|---------------|
|-----------------|-----------------|----------------|---------------|
|-----------------|-----------------|----------------|---------------|
|---7-7-7-7-7-----|---4-4-4-4-4-----|---7-7-7-7-7----|---4-4-4-4-4---|
|---7-7-7-7-7-----|---4-4-4-4-4-----|---5-5-5-5-5----|---2-2-2-2-2---|
|---5-5-5-5-5-----|---2-2-2-2-2-----|----------------|---------------|

Verso 1 (con bajo)

Adivina q me dijo esa mujer
Fue un 16 de agosto y teníamos 16
Fue después del cine yo me tomaba un café
Esperaba q dijera niño ven, te quiero ver
|-----------------|-----------------|----------------|---------------|
|-----------------|-----------------|----------------|---------------|
|-----------------|-----------------|----------------|---------------|
|---7-7-7-7-7-----|---4-4-4-4-4-----|---7-7-7-7-7----|---4-4-4-4-4---|
|---7-7-7-7-7-----|---4-4-4-4-4-----|---5-5-5-5-5----|---2-2-2-2-2---|
|---5-5-5-5-5-----|---2-2-2-2-2-----|----------------|---------------|

Pre-Coro

Y no se q paso
Por q tomo esa decisión 
|------------------|-----------------|
|------------------|-----------------|
|------------------|--------------9--|
|--7-7-7-7-7-7-7-7-|--9-9-9-9-----9--|
|-5-5-5-5-5-5-5-5--|-7-7-7-7------7--|
|------------------|-----------------|

Coro

Nunca imagine q diría eso
Nunca imagine me dolió hasta el hueso
Nunca imagine otra vez tropiezo
Nunca imagine no me esperaba eso, no me esperaba eso, q me dolió hasta el hueso
|-----------------|-----------------|----------------|---------------|
|-----------------|-----------------|----------------|---------------|
|-----------------|-----------------|----------------|---------------|
|---7-7-7-7-7-----|---4-4-4-4-4-----|---7-7-7-7-7----|---4-4-4-4-4---|
|---7-7-7-7-7-----|---4-4-4-4-4-----|---5-5-5-5-5----|---2-2-2-2-2---|
|---5-5-5-5-5-----|---2-2-2-2-2-----|----------------|---------------|







Verso 2 (con bajo)

Adivina q me hizo cuando hable
Me dio una cachetada y simplemente se fue
|-----------------|-----------------|----------------|---------------|
|-----------------|-----------------|----------------|---------------|
|-----------------|-----------------|----------------|---------------|
|---7-7-7-7-7-----|---4-4-4-4-4-----|---7-7-7-7-7----|---4-4-4-4-4---|
|---7-7-7-7-7-----|---4-4-4-4-4-----|---5-5-5-5-5----|---2-2-2-2-2---|
|---5-5-5-5-5-----|---2-2-2-2-2-----|----------------|---------------|

Pre-corus
[ Tab from: http://www.guitartabs.cc/tabs/m/misc_unsigned_bands/duktil_nunca_imagine_tab_ver_2.html ]
Y no se q paso
Por q tomo esa decisión 
|------------------|-----------------|
|------------------|-----------------|
|------------------|--------------9--|
|--7-7-7-7-7-7-7-7-|--9-9-9-9-----9--|
|-5-5-5-5-5-5-5-5--|-7-7-7-7------7--|
|------------------|-----------------|

Coro

Nunca imagine q diría eso
Nunca imagine me dolió hasta el hueso
Nunca imagine otra vez tropiezo
Nunca imagine no me esperaba eso, no me esperaba eso, q me dolió hasta el hueso
|-----------------|-----------------|----------------|---------------|
|-----------------|-----------------|----------------|---------------|
|-----------------|-----------------|----------------|---------------|
|---7-7-7-7-7-----|---4-4-4-4-4-----|---7-7-7-7-7----|---4-4-4-4-4---|
|---7-7-7-7-7-----|---4-4-4-4-4-----|---5-5-5-5-5----|---2-2-2-2-2---|
|---5-5-5-5-5-----|---2-2-2-2-2-----|----------------|---------------|

Bridge

|-----------------|-----------------|----------------|---------------|
|-----------------|-----------------|----------------|---------------|
|-----------------|-----------------|----------------|---------------|
|---7-7-7-7-7-----|---4-4-4-4-4-----|---7-7-7-7-7----|---4-4-4-4-4---|
|---7-7-7-7-7-----|---4-4-4-4-4-----|---5-5-5-5-5----|---2-2-2-2-2---|
|---5-5-5-5-5-----|---2-2-2-2-2-----|----------------|---------------|

Pre-corus

Y no se q paso
Por q tomo esa decisión 
|------------------|-----------------|
|------------------|-----------------|
|------------------|--------------9--|
|--7-7-7-7-7-7-7-7-|--9-9-9-9-----9--|
|-5-5-5-5-5-5-5-5--|-7-7-7-7------7--|
|------------------|-----------------|


Coro

Nunca imagine q diría eso
Nunca imagine me dolió hasta el hueso
Nunca imagine otra vez tropiezo
Nunca imagine no me esperaba eso, no me esperaba eso, q me dolió hasta el hueso
|-----------------|-----------------|----------------|---------------|
|-----------------|-----------------|----------------|---------------|
|-----------------|-----------------|----------------|---------------|
|---7-7-7-7-7-----|---4-4-4-4-4-----|---7-7-7-7-7----|---4-4-4-4-4---|
|---7-7-7-7-7-----|---4-4-4-4-4-----|---5-5-5-5-5----|---2-2-2-2-2---|
|---5-5-5-5-5-----|---2-2-2-2-2-----|----------------|---------------|

Final

|-----------------|-----------------|----------------|---------------|
|-----------------|-----------------|----------------|---------------|
|-----------------|-----------------|----------------|---------------|
|---7-7-7-7-7-----|---4-4-4-4-4-----|---7-7-7-7-7----|---4-4-4-4-4---|
|---7-7-7-7-7-----|---4-4-4-4-4-----|---5-5-5-5-5----|---2-2-2-2-2---|
|---5-5-5-5-5-----|---2-2-2-2-2-----|----------------|---------------|

www.myspace.com/duktil