Misc Unsigned Bands - Disagree - Crumbs Chords & Tabs

 

Disagree - Crumbs Chords & Tabs

Misc Unsigned Bands Chords & Tabs

Version: 4 Type: Tab 0 ratings
1 star 2 stars 3 stars 4 stars 5 stars
comments

Disagree - Crumbs Tab

This is the whole song for the lead guitar part..The rhythm guitar's part is in
my other tab..please check it out too..
Intro and Verse(lead):

clean acoustic

                                             
e|-12-12-10-10-8-8-7-------7-7-8-10-------7-------------------------------|
B|-------------------10-8-----------8-8-8---8-8-7-8-7-7-7-(12)------------|
G|------------------------------------------------------------(12)--------|
D|------------------------------------------------------------------------|
A|------------------------------------------------------------------------|
E|------------------------------------------------------------------------|
 
e|------------------7-7-10-8-7-8p7-------7--------------------------------|
B|-----------7-8-10----------------8-8-8---8-8-7-8------------------------|
G|-7s9-9-9-9--------------------------------------------------------------|
D|------------------------------------------------------------------------|
A|------------------------------------------------------------------------|
E|------------------------------------------------------------------------|

e|------------------------------------------------------------------------|
B|-7-7-7-(12)-------------------------------------------------------------|
G|------------(12)-7s9-9-9-9-9-7s9-9-9-9-9-7---7---9-7--------------------|
D|-------------------------------------------7---7------------------------|
A|------------------------------------------------------------------------|
E|------------------------------------------------------------------------|

e|------------------------------------------------------------------------|
B|------------------------------------------------------------------------|
G|-7s9-9-9-9-9-7---7---9-7-7s9-9-9-9-9-7---7---9-7------------------------|
D|---------------7---7-------------------7---7----------------------------|
A|------------------------------------------------------------------------|
E|------------------------------------------------------------------------|


Solo (lead):

e|------------7h8p7h8-7----------10-----8-----7---------------------------|
B|-7s8-8-8h10-----------10-8-8-8----8-8---8-8---8-------------------------|
G|------------------------------------------------------------------------|
D|------------------------------------------------------------------------|
A|------------------------------------------------------------------------|
E|------------------------------------------------------------------------|
[ Tab from: http://www.guitartabs.cc/tabs/m/misc_unsigned_bands/disagree_crumbs_tab_ver_4.html ]
e|------7h8p7h8-7--------------------8-7-7-7-8-10-15-14-------------------|
B|-8h10-----------10-8-8p7-8h10-10-8--------------------------------------|
G|------------------------------------------------------------------------|
D|------------------------------------------------------------------------|
A|------------------------------------------------------------------------|
E|------------------------------------------------------------------------|

e|-7-7-8-10-15-14h15p14-7-7-8-10-8-7--------7h8-7h8-7---------------------|
B|-----------------------------------8-8-10-------------------------------|
G|------------------------------------------------------------------------|
D|------------------------------------------------------------------------|
A|------------------------------------------------------------------------|
E|------------------------------------------------------------------------|

e|-----10-----8-----7-------10-----8-----7-------10-----8-----7-----------|
B|-8-8----8-8---8-8---8-8-8----8-8---8-8---8-8-8----8-8---8-8---8---------|
G|------------------------------------------------------------------------|
D|------------------------------------------------------------------------|
A|------------------------------------------------------------------------|
E|------------------------------------------------------------------------|

e|------7h8p7h8-7---------------------------------------------------------|
B|-8h10-----------10-8----------------------------------------------------|
G|------------------------------------------------------------------------|
D|------------------------------------------------------------------------|
A|------------------------------------------------------------------------|
E|------------------------------------------------------------------------|

Bridge (lead) :

e|-7-7-8-10-------7-------------------------------------------------------|
B|----------8-8-8---8-8-7-8-7-7-7-(12)------------------------------------|
G|-------------------------------------(12)-------------------------------|
D|------------------------------------------------------------------------|
A|------------------------------------------------------------------------|
E|------------------------------------------------------------------------|

e|------------------7-7-10-8-7-8p7-------10-8-7-8p7-------10-8-7-8p7------|
B|-----------7-8-10----------------8-8-8------------7-7-7-----------------|
G|-7s9-9-9-9--------------------------------------------------------------|
D|------------------------------------------------------------------------|
A|------------------------------------------------------------------------|
E|------------------------------------------------------------------------|

Repeat Verse (2x) then this:

e|-7-7-8-10-7-8-----------------------------------------------------------|
B|--------------8---------------------------------------------------------|
G|------------------------------------------------------------------------|
D|------------------------------------------------------------------------|
A|------------------------------------------------------------------------|
E|------------------------------------------------------------------------|
Comments