Misc Unsigned Bands - Disagree - Crumbs Chords & Tabs

 

Disagree - Crumbs Chords & Tabs

Misc Unsigned Bands Chords & Tabs

Version: 2 Type: Tab 0 ratings
1 star 2 stars 3 stars 4 stars 5 stars
comments

Disagree - Crumbs Tab

   
-------------------------------------------------------------------------------
			       Crumbs - Disagree
-------------------------------------------------------------------------------

Tabbed by: Smoque KMYS lembah beringin
Email: smoque@terato.com

here is the complete version of "Crumbs" by Disagree.
You'll have to figure out the strumming patterns yourself.I'm 
pretty sure this tab is correct, so enjoy...

Tuning: Rhythm (acoustic) = standard tuning  (E,A,D,G,B,E)
        Lead   (electric) = standard tuning  (E,A,D,G,B,E)


Chords :

   G      Em7   D      Cadd9
e|-3------3-----2------3---|
B|-3------3-----3------3---|
G|-0------0-----2------0---|
D|-0------2-----0------2---|
A|-2------2-----x------3---|
E|-3------0-----x------x---|



Intro (rhythm):

clean acoustic

             G                 Em7                D                 Cadd9
e|-------------------------------------------------------------------------------|
B|----------3-----3------------3-----3------------3-----3-----------3-----3------|
G|------0-----0-----0------0-----0-----0------2-----2-----2-----0-----0-----0----|
D|----0---0-----0--------2---2-----2--------0---0-----0-------2---2-----2--------|
A|---------------------2------------------0-----------------3--------------------|
E|--3----------------------------------------------------------------------------|  x3
            Cadd9             D
e|----------------------------0--------------------------------------------------|
B|----------3-----3---------3---3---3--------------------------------------------|
G|------0-----0-----0h2---2-------2---2h0----------------------------------------|
D|----2---2-----2-------0--------------------------------------------------------|
A|--3----------------------------------------------------------------------------|
E|-------------------------------------------------------------------------------|  x2


Verse (ryhthm):
(play the intro for the first verse)

        G
Big world 

        Em7                 D
Says he wants to see the light for once, 

        Cadd9         G
Well maybe if you try 

            Em7
It's so sad 

            D
Babe don't look so sad 

       Cadd9
I've got it wrong today 

            D
Wrong today

            Cadd9              D
And if she doesn't go your way

            Cadd9              D
Look up to blue skies and say hey 

  Cadd9      D
It's ok  it's ok


Verse (lead) :

e|--7-7-8-10-7-8------7-----------------------------------7-7-10-8-7-8----------------------|
B|----------------8-8---8-7-8-7-7--7--------------------------------------------------------|
G|--------------------------------------9--9--9-11-12-14------------------------------------|
D|------------------------------------------------------------------------------------------|
A|------------------------------------------------------------------------------------------|
E|------------------------------------------------------------------------------------------|

e|------7-----------------------------------------------------------------------------------|
B|--8-8---8-7-8-7-7--7----------------------------------------------------------------------|
G|-----------------------11-12-11-9--9--9-11-12-14------------------------------------------|
D|------------------------------------------------------------------------------------------|
A|------------------------------------------------------------------------------------------|
E|------------------------------------------------------------------------------------------|
For solo, rhythm will be playing the verse part

Solo (lead) :
[ Tab from: http://www.guitartabs.cc/tabs/m/misc_unsigned_bands/disagree_crumbs_tab_ver_2.html ]
e|------------7h8p7--7--7h8p7---------10-------8-------7---------7h8p7--7--7h8p7------------|
B|-7-8---8h10------------------8-8h10----8h10----8h10----8-8h10------------------8----------|
G|------------------------------------------------------------------------------------------|
D|------------------------------------------------------------------------------------------|
A|------------------------------------------------------------------------------------------|
E|------------------------------------------------------------------------------------------|

e|------------8-7--7-7-8-10-1514----7-7-8-10-15-14h15-14---7-7-8-10-8-7---------------------|
B|-8h7-8h10---------------------------------------------------------------8-8-10-12h13------|
G|------------------------------------------------------------------------------------------|
D|------------------------------------------------------------------------------------------|
A|------------------------------------------------------------------------------------------|
E|------------------------------------------------------------------------------------------|

e|----------------10-------8-------7---------10-------8-------7--------10-----8-------7-----|
B|-12h13-12--8h10----8h10----8h10----8--8h10-----8h10----8h10---8 8h10----8h10---8h10----8--|
G|------------------------------------------------------------------------------------------|
D|------------------------------------------------------------------------------------------|
A|------------------------------------------------------------------------------------------|
E|------------------------------------------------------------------------------------------|


e|-------7h8p7--7--7h8p7--------------------------------------------------------------------|
B|--8h10-----------------8------------------------------------------------------------------|
G|------------------------------------------------------------------------------------------|
D|------------------------------------------------------------------------------------------|
A|------------------------------------------------------------------------------------------|
E|------------------------------------------------------------------------------------------|

Bridge (rhythm) :

             G                 Em7                D                 Cadd9
e|-------------------------------------------------------------------------------|
B|----------3-----3------------3-----3------------3-----3-----------3-----3------|
G|------0-----0-----0------0-----0-----0------2-----2-----2-----0-----0-----0----|
D|----0---0-----0--------2---2-----2--------0---0-----0-------2---2-----2--------|
A|---------------------2------------------0-----------------3--------------------|
E|--3----------------------------------------------------------------------------|

Bridge (lead) :

e|--7-7-8-10--------------------------------------------7-7-10-8-7-8------------------------|
B|------------8-8-12-8-7-8-7-7--12----------------------------------------------------------|
G|-----------------------------------9--9--9-11-12-14---------------------------------------|
D|------------------------------------------------------------------------------------------|
A|------------------------------------------------------------------------------------------|
E|------------------------------------------------------------------------------------------|

e|------------------------------------------------------------------------------------------|
B|--8-8-12-8-7-8-7-7--12--------------------------------------------------------------------|
G|-----------------------11-12-11-9--9--9-11-12-14------------------------------------------|
D|------------------------------------------------------------------------------------------|
A|------------------------------------------------------------------------------------------|
E|------------------------------------------------------------------------------------------|

Outro (rhythm):

             G                 Em7                D                 Cadd9        G
e|-------------------------------------------------------------------------------3------|
B|----------3-----3------------3-----3------------3-----3-----------3-----3------3------|
G|------0-----0-----0------0-----0-----0------2-----2-----2-----0-----0-----0----0------|
D|----0---0-----0--------2---2-----2--------0---0-----0-------2---2-----2--------0------|
A|---------------------2------------------0-----------------3--------------------2------|
E|--3----------------------------------------------------------------------------3------|


Thanks to xombie/tkx for the lyric and P-E for introducing me the song.....
credit goes to Oman_poreng and Busut
long live disagree....

-ultimate-guitar.com-
Comments