Misc Unsigned Bands - Different Kind Of Assault - Truse Chords & Tabs

 

Different Kind Of Assault - Truse Chords & Tabs

Misc Unsigned Bands Chords & Tabs

Version: 1 Type: Bass Tab

Different Kind Of Assault - Truse Bass Tab

   
Intro (play once only)
G--------------------|
D--------------------|
A--------------------|
E8~----7~----5~----3-|
[ Tab from: http://www.guitartabs.cc/tabs/m/misc_unsigned_bands/different_kind_of_assault_truse_btab.html ]
Verse (repeate 'till chorus)
G---------------------------------------------------0-0-0-0-|
D-----------------------------------------------------------|
A-----------------------------------------------------------|
E8-8-8-8-8-8-8-8-7-7-7-7-7-7-7-7-5-5-5-5-5-5-5-5-3-3---3----|

Chorus (play 3 times)
G--------------------|
D--------------------|
A--------------------|
E5-5-4-4-3-3-2-2-1-1-|

Verse
Chorus
Verse
chorus (let ring last note)
Ledgend:
~ let ring