Misc Unsigned Bands - Death By Monkeys - Tipsy Chords & Tabs

 

Death By Monkeys - Tipsy Chords & Tabs

Misc Unsigned Bands Chords & Tabs

Version: 1 Type: Tab 0 ratings
1 star 2 stars 3 stars 4 stars 5 stars
comments

Death By Monkeys - Tipsy Tab

   
Song: Tipsy
Band: Death by Monkeys
Tuning: Standard
Written by: Andrew Rivett & Chris French

This is a song that me and my friend wrote for our band. It is the very first song we
ever wrote. I hope you like it.

Intro Part 1 (guitar 1)

e|-------|
B|-------| Play it with the volume on your guitar turned right down. Turn
G|-------| it up and down as you ring it out. Be sure to finish on the
D|-------| volume you want for the song
A|-------|
E|-0~~~~-|

Intro Part 2 (guitar 1)

e|------------------------------|
B|------------------------------|
G|------------------------------|  x3
D|------------------------------|      Played fast
A|-2-2-2-2-2-2-2-2-2-2-2-2-7-7--|
E|-0-0-0-0-0-0-0-0-0-0-0-0-5-5--|


Verse 1 (guitar 2)

e|-0--|
B|-2--|
G|-2--|  Play as many times as need through the whole verse
D|-2--|
A|-0--|
E|----|

Bridge (guitar 2)

e|-0-0-0-0-0-0-0-0-0-0-|
B|-0-0-0-0-0-0-0-0-0-0-|
G|-1-1-1-1-1-1-1-1-1-1-|
D|-2-2-2-2-2-2-2-2-2-2-|  Exact amount of strums
A|-2-2-2-2-2-2-2-2-2-2-|
e|-0-0-0-0-0-0-0-0-0-0-|

Chorus (guitar 2)

e|-0-|D|-2-|<e-|-2-|
A|-2-|<--|-3-|
E|-0-|<1-|---|

Verse 2 (guitar 2)

e|-0-|D|-2-|<e-|-2-|
A|-2-|<--|-0-|
E|-0-|<1-|---|
[ Tab from: http://www.guitartabs.cc/tabs/m/misc_unsigned_bands/death_by_monkeys_tipsy_tab.html ]
Solo (guitar 1)

e|-----------------------------------------|
B|-----------------------------------------|
G|-----------------------------------------|
D|-----------------------------------------|
A|-10-10-10-10-10-8-6-8--8-8-8-8-10-8-6-5--|
E|-----------------------------------------|

e|-----------------------------------------|
B|-----------------------------------------|
G|-----------------------------------------|
D|-----------------------------------------|
A|-8-8-8-10-10-9-9-6-8--4-4-6-8-6-4-2------|
E|-----------------------------------------|

Verse 3 (guitar 2)

e|-0-|
B|-2-|
G|-2-|  Play A for whole verse (no chords on final line)
D|-2-|
A|-0-|
E|---|


Order:

Intro Part 1
Intro Part 2
Verse 1
Bridge
Chorus
Bridge
Verse 2
Bridge
Chorus
Solo
Verse 3
Chorus 
Chorus

Lyrics:

Verse 1:

Sitting at a friends house
Cricket should be on
Bored by all the fill-ins
Wishing we were drinking beer instead

Chorus:

Why isn't everyone Tipsy
They should be on the ground screamin
Yelling out something that is censored
Thinking of somewhere better off

Verse 2:

Grabbed a six pack from the fridge
Tripped on a stupid model bridge
The beer went everywhere
Even in our underwear 
Oh yeah

Verse 3:

Woke up early next morning
All my non-drunk friend were sitting snoring
Went out to the empty kitchen
Opened the fridge to find another six pack

Hope you like it

Cheers!
Comments