Misc Unsigned Bands - Death By Monkeys - Monkey Vigilante Chords & Tabs

 

Death By Monkeys - Monkey Vigilante Chords & Tabs

Misc Unsigned Bands Chords & Tabs

Version: 1 Type: Tab 0 ratings
1 star 2 stars 3 stars 4 stars 5 stars
comments

Death By Monkeys - Monkey Vigilante Tab

   
Song: Monkey Vigilante
Band: Death By Monkeys
Tuning: Standard
Written By: Andrew Rivett and Chris French

Key.

x = mute instantly


This is my band title track. It is really quite cool.

There is no guitar in the verse


Pre-Chorus

e|-----|
B|-----|
G|-1x--|  One Quick Downstroke
D|-2x--|
A|-2x--|
E|-0x--|


Chorus

e|-----|
B|-----|
G|-1x--|   Strum quick downstrokes at intivals of about 2 seconds
D|-2x--|
A|-2x--|
E|-0x--|


Bridge

e|-------------------------------|
B|-------------------------------|
G|-------------------------------|
D|-4-6-8--4-6-8--4-6-4-6-4-6-8-6-|
A|-------------------------------|
E|-------------------------------|

Verse 3

e|------------------------------------------|
B|------------------------------------------|
G|------------------------------------------|
D|-6-6-6-6-6-6-6-6-6-6--7-7-7-7-7-7-7-7-7-7-|
A|-6-6-6-6-6-6-6-6-6-6--7-7-7-7-7-7-7-7-7-7-|
E|-4-4-4-4-4-4-4-4-4-4--5-5-5-5-5-5-5-5-5-5-|
[ Tab from: http://www.guitartabs.cc/tabs/m/misc_unsigned_bands/death_by_monkeys_monkey_vigilante_tab.html ]
e|------------------------------------------|
B|------------------------------------------|
G|------------------------------------------|
D|-2-2-2-2-2-2-2-2-2-2--4-4-4-4-4-4-4-4-4-4-|
A|-2-2-2-2-2-2-2-2-2-2--4-4-4-4-4-4-4-4-4-4-|
E|-0-0-0-0-0-0-0-0-0-0--2-2-2-2-2-2-2-2-2-2-|


^strum each chord for one line

Order:

Verse 1 (break)
Pre-Chorus
Chorus
Bridge
Verse 2 (break)
Pre-Chorus
Chorus 
Bridge
Verse 3
Pre-Chorus
Chorus
Bridge (ring-out)


Lyrics

Verse 1:

Last night
at a party
got my ass kicked
by a retard
woke up
next morning
was a monkey
vigilante

Chorus:

Coz today, it my day
to yell out what im thinkin bout
to tell the world just how i feel
to put the past behind my back
coz today, its my day
my time to go on the attack (no chords)

Verse 2:

went out
to that retards
blew his head off
with my shotgun
then i went to
the chess club
killed them all with
my shotgun
abd now theyre gone....

Verse 3:

the people i killed never had a chance
tyrin to hold me back with their bare hands
didnt really know when they did wring
but it doesnt matter now coz i killed them all...
i killed them a-a-all!

I hope you like this song

Cheers!
Comments