Misc Unsigned Bands - Dakota Young - The Addison Song Chords & Tabs

 

Dakota Young - The Addison Song Chords & Tabs

Misc Unsigned Bands Chords & Tabs

Version: 1 Type: Tab 0 ratings
1 star 2 stars 3 stars 4 stars 5 stars
comments

Dakota Young - The Addison Song Tab

   
-------------------------------------------------------------------------------
			     THE ADDISON SONG - Dakota Young
-------------------------------------------------------------------------------
Tabbed by: xthunderstruckx 
AIM: autopilot off 84 < always on, feel free to send me corrections.

Tuning: standard (EADGBe)

INTRO 
clean 
e|---------------------------------------------------------------------------|
B|---------------------------------------------------------------------------|
G|---------------------------------------------------------------------------|
D|-----7--7-7-7-7--7-7-7-7---4--4-4-4-4--4-4-4-4-----------------------------------------------|
A|-----7--7-7-7-7--7-7-7-7---4--4-4-4-4--4-4-4-4-----------------------------------------------|
E|-----5--5-5-5-5--5-5-5-5---2--2-2-2-2--2-2-2-2-------------------------------------------------|

e|---------------------------------------------------------------------------|
B|---------------------------------------------------------------------------|
G|-----7--7-7-7-7--7-7-7-7---------------------------------------------------|
D|-----7--7-7-7-7--7-7-7-7---7--7-7-7-7--7-7-7-7-----------------------------|
A|-----5--5-5-5-5--5-5-5-5---7--7-7-7-7--7-7-7-7-----------------------------|
E|---------------------------5--5-5-5-5--5-5-5-5-----------------------------|

Repeats 3 more times then verse 1 starts (effects {phaser and slight distortion} 3rd & 4th time)

VERSE 1 
clean
e|---------------------------------------------------------------------------|
B|---------------------------------------------------------------------------|
G|---------------------------------------------------------------------------|
D|-----7--7-7-7-7--7-7-7-7---4--4-4-4-4--4-4-4-4-----------------------------|
A|-----7--7-7-7-7--7-7-7-7---4--4-4-4-4--4-4-4-4-----------------------------|
E|-----5--5-5-5-5--5-5-5-5---2--2-2-2-2--2-2-2-2-----------------------------|
       x  x x x x  x x x x   x  x x x x  x x x x

e|---------------------------------------------------------------------------|
B|---------------------------------------------------------------------------|
G|-----7--7-7-7-7--7-7-7-7---------------------------------------------------|
D|-----7--7-7-7-7--7-7-7-7---7--7-7-7-7--7-7-7-7-----------------------------|
A|-----5--5-5-5-5--5-5-5-5---7--7-7-7-7--7-7-7-7-----------------------------|
E|---------------------------5--5-5-5-5--5-5-5-5-----------------------------|
       x  x x x x  x x x x   x  x x x x  x x x x
e|---------------------------------------------------------------------------|
B|---------------------------------------------------------------------------|
G|---------------------------------------------------------------------------|
D|-----7--7-7-7-7--7-7-7-7---4--4-4-4-4--4-4-4-4-----------------------------|
A|-----7--7-7-7-7--7-7-7-7---4--4-4-4-4--4-4-4-4-----------------------------|
E|-----5--5-5-5-5--5-5-5-5---2--2-2-2-2--2-2-2-2-----------------------------|
       x  x x x x  x x x x   x  x x x x  x x x x

e|---------------------------------------------------------------------------|
B|---------------------------------------------------------------------------|
G|-----7--7-7-7-7--7-7-7-7---------------------------------------------------|
D|-----7--7-7-7-7--7-7-7-7---7--7-7-7-7--7-7-7-7-----------------------------|
A|-----5--5-5-5-5--5-5-5-5---7--7-7-7-7--7-7-7-7-----------------------------|
E|---------------------------5--5-5-5-5--5-5-5-5-----------------------------|
       x  x x x x  x x x x   x  x x x x  x x x x

CHORUS (heavy distortion)
e|---------------------------------------------------------------------------|
B|---------------------------------------------------------------------------|
G|---------------------------------------------------------------------------|
D|-----7-7-7-7-7-7-7-7-7-7-7-7-7-7-7-7--4-4-4-4-4-4-4-4-4-4-4-4-4-4-4-4------|
A|-----7-7-7-7-7-7-7-7-7-7-7-7-7-7-7-7--4-4-4-4-4-4-4-4-4-4-4-4-4-4-4-4------|
E|-----5-5-5-5-5-5-5-5-5-5-5-5-5-5-5-5--2-2-2-2-2-2-2-2-2-2-2-2-2-2-2-2------|
      

e|---------------------------------------------------------------------------|
B|---------------------------------------------------------------------------|
G|-----7-7-7-7-7-7-7-7-7-7-7-7-7-7-7-7---------------------------------------|
D|-----7-7-7-7-7-7-7-7-7-7-7-7-7-7-7-7--7-7-7-7-7-7-7-7-7-7-7-7-7-7-7-7------|
A|-----5-5-5-5-5-5-5-5-5-5-5-5-5-5-5-5--7-7-7-7-7-7-7-7-7-7-7-7-7-7-7-7------|
E|--------------------------------------5-5-5-5-5-5-5-5-5-5-5-5-5-5-5-5------|

e|---------------------------------------------------------------------------|
B|---------------------------------------------------------------------------|
G|---------------------------------------------------------------------------|
D|-----7-7-7-7-7-7-7-7-7-7-7-7-7-7-7-7--4-4-4-4-4-4-4-4-4-4-4-4-4-4-4-4------|
A|-----7-7-7-7-7-7-7-7-7-7-7-7-7-7-7-7--4-4-4-4-4-4-4-4-4-4-4-4-4-4-4-4------|
E|-----5-5-5-5-5-5-5-5-5-5-5-5-5-5-5-5--2-2-2-2-2-2-2-2-2-2-2-2-2-2-2-2------|
      

e|---------------------------------------------------------------------------|
B|---------------------------------------------------------------------------|
G|-----7-7-7-7-7-7-7-7-7-7-7-7-7-7-7-7---------------------------------------|
D|-----7-7-7-7-7-7-7-7-7-7-7-7-7-7-7-7--7-7-7-7-7-7-7-7-7-7-7-7-7-7-7-7------|
A|-----5-5-5-5-5-5-5-5-5-5-5-5-5-5-5-5--7-7-7-7-7-7-7-7-7-7-7-7-7-7-7-7------|
E|--------------------------------------5-5-5-5-5-5-5-5-5-5-5-5-5-5-5-5------|


VERSE 2 
clean
e|---------------------------------------------------------------------------|
B|---------------------------------------------------------------------------|
G|---------------------------------------------------------------------------|
D|-----7--7-7-7-7--7-7-7-7---4--4-4-4-4--4-4-4-4-----------------------------|
A|-----7--7-7-7-7--7-7-7-7---4--4-4-4-4--4-4-4-4-----------------------------|
E|-----5--5-5-5-5--5-5-5-5---2--2-2-2-2--2-2-2-2-----------------------------|
       x  x x x x  x x x x   x  x x x x  x x x x

e|---------------------------------------------------------------------------|
B|---------------------------------------------------------------------------|
G|-----7--7-7-7-7--7-7-7-7---------------------------------------------------|
D|-----7--7-7-7-7--7-7-7-7---7--7-7-7-7--7-7-7-7-----------------------------|
A|-----5--5-5-5-5--5-5-5-5---7--7-7-7-7--7-7-7-7-----------------------------|
E|---------------------------5--5-5-5-5--5-5-5-5-----------------------------|
       x  x x x x  x x x x   x  x x x x  x x x x

e|---------------------------------------------------------------------------|
B|---------------------------------------------------------------------------|
G|---------------------------------------------------------------------------|
D|-----7--7-7-7-7--7-7-7-7---4--4-4-4-4--4-4-4-4-----------------------------|
A|-----7--7-7-7-7--7-7-7-7---4--4-4-4-4--4-4-4-4-----------------------------|
E|-----5--5-5-5-5--5-5-5-5---2--2-2-2-2--2-2-2-2-----------------------------|
       x  x x x x  x x x x   x  x x x x  x x x x
[ Tab from: http://www.guitartabs.cc/tabs/m/misc_unsigned_bands/dakota_young_the_addison_song_tab.html ]
e|---------------------------------------------------------------------------|
B|---------------------------------------------------------------------------|
G|-----7--7-7-7-7--7-7-7-7---------------------------------------------------|
D|-----7--7-7-7-7--7-7-7-7---7--7-7-7-7--7-7-7-7-----------------------------|
A|-----5--5-5-5-5--5-5-5-5---7--7-7-7-7--7-7-7-7-----------------------------|
E|---------------------------5--5-5-5-5--5-5-5-5-----------------------------|
       x  x x x x  x x x x   x  x x x x  x x x x

CHORUS (heavy distortion) 
e|---------------------------------------------------------------------------|
B|---------------------------------------------------------------------------|
G|---------------------------------------------------------------------------|
D|-----7-7-7-7-7-7-7-7-7-7-7-7-7-7-7-7--4-4-4-4-4-4-4-4-4-4-4-4-4-4-4-4------|
A|-----7-7-7-7-7-7-7-7-7-7-7-7-7-7-7-7--4-4-4-4-4-4-4-4-4-4-4-4-4-4-4-4------|
E|-----5-5-5-5-5-5-5-5-5-5-5-5-5-5-5-5--2-2-2-2-2-2-2-2-2-2-2-2-2-2-2-2------|
      

e|---------------------------------------------------------------------------|
B|---------------------------------------------------------------------------|
G|-----7-7-7-7-7-7-7-7-7-7-7-7-7-7-7-7---------------------------------------|
D|-----7-7-7-7-7-7-7-7-7-7-7-7-7-7-7-7--7-7-7-7-7-7-7-7-7-7-7-7-7-7-7-7------|
A|-----5-5-5-5-5-5-5-5-5-5-5-5-5-5-5-5--7-7-7-7-7-7-7-7-7-7-7-7-7-7-7-7------|
E|--------------------------------------5-5-5-5-5-5-5-5-5-5-5-5-5-5-5-5------|

e|---------------------------------------------------------------------------|
B|---------------------------------------------------------------------------|
G|---------------------------------------------------------------------------|
D|-----7-7-7-7-7-7-7-7-7-7-7-7-7-7-7-7--4-4-4-4-4-4-4-4-4-4-4-4-4-4-4-4------|
A|-----7-7-7-7-7-7-7-7-7-7-7-7-7-7-7-7--4-4-4-4-4-4-4-4-4-4-4-4-4-4-4-4------|
E|-----5-5-5-5-5-5-5-5-5-5-5-5-5-5-5-5--2-2-2-2-2-2-2-2-2-2-2-2-2-2-2-2------|
      

e|---------------------------------------------------------------------------|
B|---------------------------------------------------------------------------|
G|-----7-7-7-7-7-7-7-7-7-7-7-7-7-7-7-7---------------------------------------|
D|-----7-7-7-7-7-7-7-7-7-7-7-7-7-7-7-7--7-7-7-7-7-7-7-7-7-7-7-7-7-7-7-7------|
A|-----5-5-5-5-5-5-5-5-5-5-5-5-5-5-5-5--7-7-7-7-7-7-7-7-7-7-7-7-7-7-7-7------|
E|--------------------------------------5-5-5-5-5-5-5-5-5-5-5-5-5-5-5-5------|

SOLO (heavy distortion)
e|-------------------------------------------------------------------|
B|-------------------------------------------------------------------|
G|-------------------------------------------------------------------|
D|---------------hb5---5---5-7----------5----------------------------|
A|----------5h7------7---7---------5h7----7-6-5-------------8----8---|
E|-----5h8---------------------5h8--------------8\5--5/8-10---10---10|

e|----------------------------------------------12\8---12p9---------------|
B|--------------------------------------8h11/12-------------12p9----------|
G|---------------------------------8h10--------------------------12p11p9--|
D|----------------------------8h10----------------------------------------|
A|-------------8----8----8h10---------------------------------------------|
E|------5/8-10---10---10--------------------------------------------------|

e|------------------------------------------------------------------------|
B|------------------------------------------------------------------------|
G|---9--9-fb11(13)--------------------------------------------------------|
D|-11-11-----------11-9---------------------------------------------------|
A|----------------------11-----11\----------------------------------------|
E|------------------------------------------------------------------------|

CHORUS (heavy distortion) 
e|---------------------------------------------------------------------------|
B|---------------------------------------------------------------------------|
G|---------------------------------------------------------------------------|
D|-----7-7-7-7-7-7-7-7-7-7-7-7-7-7-7-7--4-4-4-4-4-4-4-4-4-4-4-4-4-4-4-4------|
A|-----7-7-7-7-7-7-7-7-7-7-7-7-7-7-7-7--4-4-4-4-4-4-4-4-4-4-4-4-4-4-4-4------|
E|-----5-5-5-5-5-5-5-5-5-5-5-5-5-5-5-5--2-2-2-2-2-2-2-2-2-2-2-2-2-2-2-2------|
      

e|---------------------------------------------------------------------------|
B|---------------------------------------------------------------------------|
G|-----7-7-7-7-7-7-7-7-7-7-7-7-7-7-7-7---------------------------------------|
D|-----7-7-7-7-7-7-7-7-7-7-7-7-7-7-7-7--7-7-7-7-7-7-7-7-7-7-7-7-7-7-7-7------|
A|-----5-5-5-5-5-5-5-5-5-5-5-5-5-5-5-5--7-7-7-7-7-7-7-7-7-7-7-7-7-7-7-7------|
E|--------------------------------------5-5-5-5-5-5-5-5-5-5-5-5-5-5-5-5------|

e|---------------------------------------------------------------------------|
B|---------------------------------------------------------------------------|
G|---------------------------------------------------------------------------|
D|-----7-7-7-7-7-7-7-7-7-7-7-7-7-7-7-7--4-4-4-4-4-4-4-4-4-4-4-4-4-4-4-4------|
A|-----7-7-7-7-7-7-7-7-7-7-7-7-7-7-7-7--4-4-4-4-4-4-4-4-4-4-4-4-4-4-4-4------|
E|-----5-5-5-5-5-5-5-5-5-5-5-5-5-5-5-5--2-2-2-2-2-2-2-2-2-2-2-2-2-2-2-2------|
      

e|---------------------------------------------------------------------------|
B|---------------------------------------------------------------------------|
G|-----7-7-7-7-7-7-7-7-7-7-7-7-7-7-7-7---------------------------------------|
D|-----7-7-7-7-7-7-7-7-7-7-7-7-7-7-7-7--7-7-7-7-7-7-7-7-7-7-7-7-7-7-7-7------|
A|-----5-5-5-5-5-5-5-5-5-5-5-5-5-5-5-5--7-7-7-7-7-7-7-7-7-7-7-7-7-7-7-7------|
E|--------------------------------------5-5-5-5-5-5-5-5-5-5-5-5-5-5-5-5------|

e|---------------------------------------------------------------------------|
B|---------------------------------------------------------------------------|
G|---------------------------------------------------------------------------|
D|-----7-7-7-7-7-7-7-7-7-7-7-7-7-7-7-7--4-4-4-4-4-4-4-4-4-4-4-4-4-4-4-4------|
A|-----7-7-7-7-7-7-7-7-7-7-7-7-7-7-7-7--4-4-4-4-4-4-4-4-4-4-4-4-4-4-4-4------|
E|-----5-5-5-5-5-5-5-5-5-5-5-5-5-5-5-5--2-2-2-2-2-2-2-2-2-2-2-2-2-2-2-2------|
      

e|---------------------------------------------------------------------------|
B|---------------------------------------------------------------------------|
G|-----7-7-7-7-7-7-7-7-7-7-7-7-7-7-7-7---------------------------------------|
D|-----7-7-7-7-7-7-7-7-7-7-7-7-7-7-7-7--7-7-7-7-7-7-7-7-7-7-7-7-7-7-7-7------|
A|-----5-5-5-5-5-5-5-5-5-5-5-5-5-5-5-5--7-7-7-7-7-7-7-7-7-7-7-7-7-7-7-7------|
E|--------------------------------------5-5-5-5-5-5-5-5-5-5-5-5-5-5-5-5------|

e|---------------------------------------------------------------------------|
B|---------------------------------------------------------------------------|
G|---------------------------------------------------------------------------|
D|-----7-7-7-7-7-7-7-7-7-7-7-7-7-7-7-7--4-4-4-4-4-4-4-4-4-4-4-4-4-4-4-4------|
A|-----7-7-7-7-7-7-7-7-7-7-7-7-7-7-7-7--4-4-4-4-4-4-4-4-4-4-4-4-4-4-4-4------|
E|-----5-5-5-5-5-5-5-5-5-5-5-5-5-5-5-5--2-2-2-2-2-2-2-2-2-2-2-2-2-2-2-2------|
      

e|---------------------------------------------------------------------------|
B|---------------------------------------------------------------------------|
G|-----7-7-7-7-7-7-7-7-7-7-7-7-7-7-7-7---------------------------------------|
D|-----7-7-7-7-7-7-7-7-7-7-7-7-7-7-7-7--7-7-7-7-7-7-7-7-7-7-7-7-7-7-7-7------|
A|-----5-5-5-5-5-5-5-5-5-5-5-5-5-5-5-5--7-7-7-7-7-7-7-7-7-7-7-7-7-7-7-7------|
E|--------------------------------------5-5-5-5-5-5-5-5-5-5-5-5-5-5-5-5------|
 

fades out 


enjoy!
| fb full bend
| hb half bend
| /  slide up
| \  slide down
| h  hammer-on
| p  pull-off
| ~  vibrato
| +  harmonic
| x  Mute note
===============================================================================
Comments