Misc Unsigned Bands - Cunt - You Wanker Chords & Tabs

 

Cunt - You Wanker Chords & Tabs

Misc Unsigned Bands Chords & Tabs

Version: 1 Type: Tab 0 ratings
1 star 2 stars 3 stars 4 stars 5 stars
comments

Cunt - You Wanker Tab

   
-------------------------------------------------------------------------------
			    You Wanker - CUNT.
-------------------------------------------------------------------------------
Tabbed by:Ktulu_the_leper
Email:Deathslayer18@hotmail.com

Tuning:Eb A D G B e


  INTRO
e |-------------------|-------------------------------------------------------|
B |-------------------|-------------------------------------------------------|
G |-------------------|-------------------------------------------------------|
D |-7---7-10-1--------|-444444444---------------------------------------------|
A |-7---7-10-1--------|-444444444---------------------------------------------|
Eb|-5---5-8--3--0-0-0-|-222222222-0h9p3h9p3h9p3h9p3h9p3h9p3h9p3---------------|
                                       
                                      tapping here.
  VERSE
e |-------------------------------------------------------|
B |-------------------------------------------------------|
G | ------------------------------------------------------|
D |-----------7-----7--9------------------7-9-6-4----0----|
A |-----------7-----7--9------------------7-9-6-4----0----|
Eb|---0-0-0-0-5-0-0-5--7-0-0-0-0-0-0-0-0--5-7-4-2----2----|
[ Tab from: http://www.guitartabs.cc/tabs/m/misc_unsigned_bands/cunt_you_wanker_tab.html ]
                                                    Hold last note and let it ring.
  CHORUS                                         
e |---------------------------------------------------------------------------|
B |---------------------------------------------------------------------------|
G |---------------------------------------------------------------------------|
D |-3333333333-----1111111111111155555522222----------------------------------|
A |-5555555555-----3333333333333377777744444----------------------------------|
Eb|-5555555555-00--3333333333333377777744444----------------------------------|


   BRIDGE (comes straight in after "you bloody Wanker!")
e |---------------------------------------------------------------------------|
B |---------------------------------------------------------------------------|
G |---------------------------------------------------------------------------|
D |-4--6--9--7---------------------------------------4--5--6------------------|
A |-4--6--9--7---------------------------------------4--5--6------------------|
Eb|-2--4--7--5--0-0-0--1-3-1-0-0-0---2-4-2-1-3-1-----2--3--4------------------|

   CHORUS, THEN THE SOLO
   SOLO
e |------22-24-27-----------------------------------14----------------------------17\12~----|
B |--16------------20b22-20p16p4h16h20p16p4-------------17-----------13-------14------------|
G |----------------------------------------------------------17---19------14----------------|
D |-----------------------------------------------------------------------------------------|
A |-----------------------------------------------------------------------------------------|
Eb|-----------------------------------------------------------------------------------------|
                    cross handed taping works here.
                      

e |----14--12------------------------------|
B |-----------18---------------------------|
G |--------------18------------------------|
D |------------------17p15-15~-------------|
A |----------------------------------------|
Eb|----------------------------------------|

then:
CHORUS
VERSE
CHORUS
BRIDGE, Fading out.

| /  slide up
| \  slide down
| h  hammer-on
| p  pull-off
| ~  vibrato
| +  harmonic
| x  Mute note

(if you havnt heard the song, come see us live or email me and i could send you
our EP for $5 NZ, entitled, "YOU CUNT")
===============================================================================
Comments