Misc Unsigned Bands - Cromok - The Gift Chords & Tabs

 

Cromok - The Gift Chords & Tabs

Misc Unsigned Bands Chords & Tabs

Version: 1 Type: Tab 0 ratings
1 star 2 stars 3 stars 4 stars 5 stars
comments

Cromok - The Gift Tab

   
title       : The Gift
artist      : cromok
transcriber : pablorio


-This instrumntal song is better than "Another You" 
-I make this song when I live at China
-I hope you enjoy this song..:) 

Tablature Notation:

  /   = up-slide 
  \   = down-slide 
  h   = hammer
  p   = pull
  [?] = harmonic




***** From The Heart *****

riff1
e|--7-----5-----3-----2-----3-----3--|--5-----3-----------------------|
B|----0-----0-----0-----3-----3------|----0-----0---5--5-----3-----3--|
G|------0-----0-----------2-----2----|------5-----5------0-----0------|
D|--------------------0--------------|---------------------0-----0----|
A|-----------------------------------|--0-----------------------------|
E|--0--------------------------------|-----------------3--------------|

riff2
e|--3-----2-----0--0-------0-2--|--3---------3-------------0-------------|
B|----3-----3--------3---3------|----3---3-----3---------3---3---3--[7]--|
G|------0-----0--------0--------|------0---0-----0-----5-------5----[7]--|
D|------------------------------|------------------0---------------------|
A|--3--------------2------------|--3-------------------------------------|
E|------------------------------|----------------------------------------|

riff3
e|--3-----2-----0--0------------|--------0------------0------0----------0---------||
B|----3-----3--------3---3-1-0--|--1---1---1---1--1------3------3---3-------3--3--||
G|------0-----0--------0--------|----2-------2------2------2------0---0--------0--||
D|------------------------------|----------------------------------------------0--||
A|--3--------------2------------|--0--------------0------2------3--------------3--||
E|------------------------------|-------------------------------------------------||

riff4
e|----------10-------12\---8-----------8-----|
B|-------12----12------------10---10-----10--|
G|----10----------10------------9----9-------|
D|-------------------------------------------|
A|-------------------------------------------|
E|--0----------------------0-----------------|

riff5
e|--------5-----7--7-7h8p7-------------|
B|------7---7--------------10-8-7------|
G|----5-------5-------------------9-7--|
D|-------------------------------------|
A|--0----------------------------------|
E|-----------------0-------------------|

riff6
e|--------5-----7--8-----8--7-----7--5-----5--3-----3--|
B|------7---7--------7--------5--------3--------2------|
G|----5-------5--------7--------5--------3--------2----|
D|-----------------7--------5--------3--------2--------|
A|--0--------------------------------------------------|
E|-----------------------------------------------------|

riff7
e|--2---2h3p2/--3---3h5p3/--5---5h7p5/--7-5-3-2--|
B|--3-3-3----/--5-5-5----/--7-7-7----/--8-7-5-3--|
G|-----------------------------------------------|
D|-----------------------------------------------|
A|-----------------------------------------------|
E|-----------------------------------------------|

e|--2---2h3p2/--3---3h5p3/--5---5h7p5/--7-5-3-2-2---2---2---2---2--|
B|--3-3-3----/--5-5-5----/--7-7-7----/--8-7-5-3-3-3---3---3---3----|
G|-----------------------------------------------------------------|
D|-----------------------------------------------------------------|
A|-----------------------------------------------------------------|
E|-----------------------------------------------------------------|
[ Tab from: http://www.guitartabs.cc/tabs/m/misc_unsigned_bands/cromok_the_gift_tab.html ]
riff8
e|--3-2-0------------------------------0--||
B|--------3--3-2-0---------------------0--||
G|-----------------2--2-1--------------0--||
D|--0---------------------4-2-0--------2--||
A|-----------0------------------4-2-0--2--||
E|--------------------0----------------0--||



***** in my soul *****

riff9
e|--5/7--------------7/10--------------10/8--------------8/7--------------|
B|------0---0---0---------0---0---0---------0---0---0--------0---0---0----|
G|--------0---0---0---------0---0---0---------0---0---0--------0---0---0--|
D|------------------------------------------------------------------------|
A|------------------------------------------------------------------------|
E|--0----------------0------------------0----------------0----------------|

riff10
e|-----------5------------------------0-------0---------------0--------|
B|--5-h7-7-------7---7---7----5h7\--3-----0-------0-------0-------0----|
G|---------5---5---5---5---5------------0---0---0---0---0---0---0---0--|
D|---------------------------------------------------------------------|
A|--5----------------5--------5-----2----------------------------------|
E|------------------------------------0---------------0----------------|


e|-----------5--------------------------0-------0---------------0--------|
B|--5-h7-7-------7---5h7---7----5h7\--3-----0-------0-------0-------0----|
G|---------5---5---5-----5---5------------0---0---0---0---0---0---0---0--|
D|-----------------------------------------------------------------------|
A|--5----------------5----------5-----2----------------------------------|
E|--------------------------------------0---------------0----------------|


riff11
e|----------0-------0-------0-------0-------0---------------0--------|
B|------0-------0-------0-------0-------0-------0-------0-------0----|
G|----0---0---0---0---0---0---0---0---0---0---0---0---0---0---0---0--|
D|-------------------------------------------------------------------|
A|-------------------------------------------------------------------|
E|--2---------------2---------------3---------------3----------------|


e|----------0-----------------------0-----------------0--||
B|------0-------0-----------0---------------0---------0--||
G|----0---0---0---0-----0-------0-------0-------0-----0--||
D|----------------------------------------------------2--||
A|----------------------------------------------------2--||
E|--2---------------2---------------------------------0--||



***** through the wind *****

riff12 - Play this as fast as you can..
e|--------------------------------------------------------|
B|--------------------------------------------------------|
G|--0-0-0-0-0-0-0-0------2p0--0-0-0-0-0-0-0-0--4p2--------|
D|--2-2-2-2-2-2-2-2--4p2------2-2-2-2-2-2-2-2------4p2p0--|
A|--2-2-2-2-2-2-2-2-----------2-2-2-2-2-2-2-2-------------|
E|--0-0-0-0-0-0-0-0-----------0-0-0-0-0-0-0-0-------------|


e|--------------------------------------------------------||
B|---------------------------------------------3p2--------||
G|--0-0-0-0-0-0-0-0------2p0--0-0-0-0-0-0-0-0------4p2p0--||
D|--2-2-2-2-2-2-2-2--4p2------2-2-2-2-2-2-2-2-------------||
A|--2-2-2-2-2-2-2-2-----------2-2-2-2-2-2-2-2-------------||
E|--0-0-0-0-0-0-0-0-----------0-0-0-0-0-0-0-0-------------||


**********

Riff guide:

	1) riff1
	2) riff2
	3) riff1
	4) riff3
	5) riff4
	6) riff5
	7) riff4
	8) riff6
	9) riff7
       10) riff8

       11) riff9
       12) riff9
       13) riff10
       14) riff11

       15) riff12 (Repeat 3 times & fade-out)



-any question dinmail1988@yahoo.com


-PabloRio-
Comments