Misc Unsigned Bands - Cromok - Misty Chords & Tabs

 

Cromok - Misty Chords & Tabs

Misc Unsigned Bands Chords & Tabs

Version: 1 Type: Tab 0 ratings
1 star 2 stars 3 stars 4 stars 5 stars
comments

Cromok - Misty Tab

Misty

Tab By MKF and MSH

riff 1:
e|------------------------------------------------------|
B|------------------------------------------------------|
G|------------------------------------------------------|
D|--4------4------4------4------------------------------|
A|--2------2------2------2------5------5------2------2--|
E|------------------------------3------3------0------0--|

       <.pm..>     <.pm..>     <.pm..>
e|--------------------------------------------------|
B|--------------------------------------------------|
G|--------------------------------------------------|  ...
D|--4-----------4-----------4-----------5s4--5s4----|
A|--2--2-2-2-2--2--2-2-2-2--2--2-2-2-2--3s2--3s2----|
E|--------------------------------------------------|


         <.pm..>     <.pm..>     <.pm..>
    ---------------------------------------------||
    ---------------------------------------------||
 ...---------------------------------------------||
    --------------------------------------4-2----||
    --5-----------5-----------2---------------3--||
    --3--3-3-3-3--3--3-3-3-3--0--0-0-0-0---------||

riff 2: with/intro lead
       <.pm..>     <.pm..>     <.pm..>
e|--------------------------------------------------|
B|--------------------------------------------------|
G|--------------------------------------------------|  ...
D|--4-----------4-----------4-----------5s4--5s4----|
A|--2--2-2-2-2--2--2-2-2-2--2--2-2-2-2--3s2--3s2----|
E|--------------------------------------------------|

         <.pm..>     <.pm..>     <.pm..>
    ---------------------------------------------||
    ---------------------------------------------||
 ...---------------------------------------------||
    --------------------------------------4-2----||
    --5-----------5-----------2---------------3--||
    --3--3-3-3-3--3--3-3-3-3--0--0-0-0-0---------||

--> riff 2 repeat 6 times and play with intro


intro lead : w/riff2
e|------14----14----14----14----14----14----14----14------|
B|---------17----15----14----------17----15----14---------|
G|--s16----------------------16----------------------  ---| 7 X
D|--------------------------------------------------------|
A|--------------------------------------------------------|
E|--------------------------------------------------------|


e|------14----14----14----14----14----14--------------------|
B|---------17----15----14----------17----15-15p14-15p14s10--|
G|--s16----------------------16-----------------------------| ...
D|----------------------------------------------------------|
A|----------------------------------------------------------|
E|----------------------------------------------------------|


    -----------------------------14^^half---14^half--|
    --------14-------15-------17---------------------|
... --12-12----12-12----12-12------------------------|  --> 2 X
    -------------------------------------------------|
    -------------------------------------------------|
    -------------------------------------------------|


e|------14----14----14----14----14----14--------------------|
B|---------17----15----14----------17----15-15p14-15p14s10--|
G|--s16----------------------16-----------------------------| ...
D|----------------------------------------------------------|
A|----------------------------------------------------------|
E|----------------------------------------------------------|


    --------14-------15----17----15----14----15----14--|
    ---------------------------------------------------|
... --12-12----12-12----12----12----12----12----12-----|  --> 2 X
    ---------------------------------------------------|
    ---------------------------------------------------|
    ---------------------------------------------------|


e|------14----14----14----14----14----14--------------------|
B|---------17----15----14----------17----15-15p14-15p14s10--|
G|--s16----------------------16-----------------------------| ...
D|----------------------------------------------------------|
A|----------------------------------------------------------|
E|----------------------------------------------------------|


    -----s17-15-14----14-------------------------------------||
    ------------------------17-----s17-15-14-----------------||
... --12-----------12----12----12------------16--------------|| --> 1 X
    --------------------------------------------16-----------||
    -----------------------------------------------17-16-14--||
    ---------------------------------------------------------||


riff 3 : -->from riff 2 continue here.Fast
e|----------------------------------||
B|----------------------------------||
G|----------------------------------|| --> 8 X
D|----------------------------------||
A|--2--2-5-4----5-4----5-4----------||
E|------------3------3------2-3-5---||

riff 4 :
e|---------------------------------||
B|---------------------------------||
G|---------------------------------|| --> 8 X,
D|---------------------------------||
A|--2--2------4------5-------------||
E|-------3-2----3-2----3-2--2-3-5--||


riff 5 :

 2:09
             <............pm.............>
e|------------------------------------------|
B|------------------------------------------|
G|------------------------------------------|  (5A)
D|-----------5-5-5-5-5--4-4-5-4-2--2-2-2-2--|
A|--2-2-2-2--3-3-3-3-3--2-2-3-2-0--0-0-0-0--|
E|--0-0-0-0---------------------------------|


             <............pm.............>
e|------------------------------------------|
B|------------------------------------------|
G|------------------------------------------|  (5B)
D|-----------7-7-7-7-7--5-5-7-5-4--4-4-4-4--|
A|--2-2-2-2--5-5-5-5-5--3-3-5-3-2--2-2-2-2--|
E|--0-0-0-0---------------------------------|

             <.......pm.......>
e|-------------------------------||
B|-------------------------------||
G|-------------------------------|| (5C)
D|-----------7-7-7-7-7--5-5-7-5--||
A|--2-2-2-2--5-5-5-5-5--3-3-5-3--||
E|--0-0-0-0----------------------||


riff 6 : w/solo

 2:38
    <..pm.>     <..pm.>     <..pm.>     <..pm.>
e|--------------------------------------------------|
B|--------------------------------------------------|
G|--------------------------------------------------|
D|-----------9-----------9--------------------------|
A|--7-7-7-7--7--7-7-7-7--7-----------7-----------7--|
E|--------------------------5-5-5-5--5--5-5-5-5--5--|

    <..pm.>     <..pm.>     <..pm.>     <..pm.>
e|--------------------------------------------------|
B|--------------------------------------------------|
G|--------------------------------------------------|
D|-----------7-----------7--------------------------|
A|--5-5-5-5--5--5-5-5-5--5-----------5-----------5--|
E|--------------------------3-3-3-3--3--3-3-3-3--3--|

    <..pm.>     <..pm.>     <..pm.>     <..pm.>
e|--------------------------------------------------|
B|--------------------------------------------------|
G|--------------------------------------------------|
D|-----------5-----------5--------------------------|
A|--3-3-3-3--3--3-3-3-3--3-----------7-----------7--|
E|--------------------------5-5-5-5--5--5-5-5-5--5--|

    <..pm.>     <..pm.>
e|-------------------------------------||
B|-------------------------------------||
G|-------------------------------------||
D|----------------------------------8--||
A|-----------9-----------9---9-10-7-6--||
E|--7-7-7-7--7--7-7-7-7--7---7--8-5----||

--> Play this riff 4 times
    3 times with solo


riff 7 :
 3:40
e|-----------------------------------------------|
B|-----------------------------------------------|
G|-----------------------------------------------|
D|--9---------7---------5---------------------8--|
A|--7----7----5----5----3----7----9----9-10-7-6--|
E|-------5---------3---------5----7----7--8-5----|

                                     <....pm.....>
e|--------------------------------------------------|
B|--------------------------------------------------|
G|--------------------------------------------------|
D|--9---------7---------5---------------------------|
A|--7----7----5----5----3----7----9-----------------|
E|-------5---------3---------5----7--7-7-7-7-7-8-7--|


riff 8 :
       <..pm.>     <..pm.>     <..pm.>
e|-----------------------------------------|
B|-----------------------------------------|
G|-----------------------------------------|
D|--4--4-4-4-4--4--7-7-7-7--7--7-7-7-7--7--|
A|--2--2-2-2-2--2--5-5-5-5--5--5-5-5-5--5--|
E|-----------------------------------------|

    <....pm...>     <....pm...>     <....pm...>
e|------------------------------------------------------|
B|------------------------------------------------------|
G|------------------------------------------------------|
D|--9-9-9-9-9-9--9--9-9-9-9-9-9--9--9-9-9-9-9-9--9-7-9--|
A|--7-7-7-7-7-7--7--7-7-7-7-7-7--7--7-7-7-7-7-7--7-5-7--|
E|------------------------------------------------------|

[ Tab from: http://www.guitartabs.cc/tabs/m/misc_unsigned_bands/cromok_misty_tab.html ]
riff 9 :
    <..pm.>     <..pm.>     <....pm....>
e|-------------------------------------------|
B|-------------------------------------------|
G|-------------------------------------------|  (9A)
D|--9-9-9-9--9--9-9-9-9--9-------------------|
A|--7-7-7-7--7--7-7-7-7--7--8-7----------10--|
E|------------------------------10-8-7-7--8--|

    <..pm.>     <..pm.>
e|------------------------------------|
B|------------------------------------|
G|------------------------------------|  (9B)
D|--------------------------7---7--9--|
A|----------10----------10----8----7--|
E|--8-8-8-8--8--8-8-8-8--8------------|

--> Play this riff 4 times


    <..pm.>     <..pm.>
e|------------------------------------------------------------|
B|------------------------------------------------------------|
G|------------------------------------------------------------|  (9C)
D|--------------------------7----7---7---7----7---7-----------|
A|----------10----------10----10---8---7----------------------|
E|--8-8-8-8--8--8-8-8-8--8-----------------10---8---7--2-3-5--|


riff 10 :
e|-------------------------------------------------------|
B|-------------------------------------------------------|
G|-------------------------------------------------------| ...
D|--4---------7---------5--------------------------------|
A|--2----7----5----5----3----7----9-----------9----------|
E|-------5---------3---------5----7--7-7-7-7--7--7-7-7-7-|


     -----------------------||
     -----------------------||
 ... -----------------------||
     --7s9-7------7---------||
     --------10-9---10-9-7--||
     -----------------------||


outro :
       <.pm..>     <.pm..>     <.pm..>
e|--------------------------------------------------|
B|--------------------------------------------------|
G|--------------------------------------------------|  ...
D|--4-----------4-----------4-----------5s4--5s4----|
A|--2--2-2-2-2--2--2-2-2-2--2--2-2-2-2--3s2--3s2----|
E|--------------------------------------------------|

         <.pm..>     <.pm..>     <.pm..>
    ---------------------------------------------|
    ---------------------------------------------|
 ...---------------------------------------------|
    --------------------------------------4-2----|
    --5-----------5-----------2---------------3--|
    --3--3-3-3-3--3--3-3-3-3--0--0-0-0-0---------|

       <.pm..>     <.pm..>     <.pm..>
e|--------------------------------------------------|
B|--------------------------------------------------|
G|--------------------------------------------------|  ...
D|--4-----------4-----------4-----------5s4--5s4----|
A|--2--2-2-2-2--2--2-2-2-2--2--2-2-2-2--3s2--3s2----|
E|--------------------------------------------------|

         <.pm..>     <.pm..>     <.pm..>
    ---------------------------------------------------||
    ---------------------------------------------------||
 ...---------------------------------------------------||
    --------------------------------------4-2---2------||
    --5-----------5-----------2---------------3---3-2--||
    --3--3-3-3-3--3--3-3-3-3--0--0-0-0-0---------------||


solo 1 :

*********** with solo 2
e|---------------------------------------------------|
B|---------------------------------------------------|
G|-------9-11-12-11^half-14-11~~~----9-11-11^half----|
D|--14~~~-------------------------12---------------9-|
A|---------------------------------------------------|
E|---------------------------------------------------|

e|--------------------------------------------------|
B|--------------------------------------------------|
G|---------12-------12------14-11~~~-----11-12-11-9-|
D|----9-10-----10-9---------------------------------|
A|-12-----------------------------------------------|
E|--------------------------------------------------|

*********** end solo 2


e|-19p15----19p15----19p15--19p15----19p15----19p15-|
B|-------17-------17--------------17-------17-------|
G|--------------------------------------------------|
D|--------------------------------------------------|
A|--------------------------------------------------|
E|--------------------------------------------------|

e|-17p14----17p14----17p14--17p14----17p14----17p14-|
B|-------15-------15--------------15-------15-------|
G|--------------------------------------------------|
D|--------------------------------------------------|
A|--------------------------------------------------|
E|--------------------------------------------------|


e|-17p12----17p12----17p12--17p12----17p12----17p12-|
B|-------15-------15--------------15-------15-------|
G|--------------------------------------------------|
D|--------------------------------------------------|
A|--------------------------------------------------|
E|--------------------------------------------------|

e|-15p10----15p10----15p10--15p10----15p10----15p10-|
B|-------12-------12--------------12-------12-------|
G|--------------------------------------------------|
D|--------------------------------------------------|
A|--------------------------------------------------|
E|--------------------------------------------------|


e|-15p12----15p12----15p12--15p12----15p12----15p12-|
B|-------13-------13--------------13-------13-------|
G|--------------------------------------------------|
D|--------------------------------------------------|
A|--------------------------------------------------|
E|--------------------------------------------------|


e|-12p8----12p8----12p8--12p8----12p8----12p8-|
B|------10------10------------10------10------|
G|--------------------------------------------|
D|--------------------------------------------|
A|--------------------------------------------|
E|--------------------------------------------|


e|-11-11-11-11-12-12-12-12-14-14-14-14-14...^half--14~~~-|
B|-------------------------------------------------------|
G|-------------------------------------------------------|
D|-------------------------------------------------------|
A|-------------------------------------------------------|
E|-------------------------------------------------------|

e|-----------------------------------------------------------------------|
B|-----------------------------------------------------------------------|
G|-11...^half-11~~~-11h12p11-9h11p9----9---------------------------------|
D|----------------------------------12---10-12-9h10p9----9h10p9----------|
A|----------------------------------------------------12--------12-10s12-|
E|-----------------------------------------------------------------------|


e|--------------------------------------------------------------|
B|------------------------------------------10-12...^half-12~~~-|
G|--------------------------9-11----9-11-12---------------------|
D|----------9-10----9-10-12------12-----------------------------|
A|-12-10-12------12---------------------------------------------|
E|--------------------------------------------------------------|

e|------------------------------------------------|
B|------------------------------------------------|
G|-12---16p12-12-12-12-12-16p12-12-12-12-12-16p12-|
D|------------------------------------------------|
A|------------------------------------------------|
E|------------------------------------------------|


e|------------------------------------------------------------------|
B|------------------------------------------------------------------|
G|-12p11s9-11p10----10-----------------------------------------9-11-|
D|---------------12----10-12-9h10p9----9-------9-10----9-10-12------|
A|----------------------------------12---10-12------12--------------|
E|------------------------------------------------------------------|


e|---------------------11-12p11----11-15p14p12-17p15p14-19p17p15-20p19p17-|
B|------------10-12-13----------13----------------------------------------|
G|----9-11-12-------------------------------------------------------------|
D|-12---------------------------------------------------------------------|
A|------------------------------------------------------------------------|
E|------------------------------------------------------------------------|


e|-22p17-19p17----17-------------------------------||
B|-------------20----20-19-17-16h17p16----16-17~~~-||
G|-------------------------------------17----------||
D|-------------------------------------------------||
A|-------------------------------------------------||
E|-------------------------------------------------||


solo 2 : w/solo 1
e|--------------------------------------------------------------|
B|--------------------------------------------------------------|
G|--9s12~~~---12-14-16--14h16---17s14-14---11-12-14-14^full-----|
D|-----------------------------------------------------------12-|
A|--------------------------------------------------------------|
E|--------------------------------------------------------------|


e|-----------------------------------------------------------------||
B|-----------------------------------------------------------------||
G|--------------12---------12---17s14-14---------------------------||
D|--------12s14------14-12------------------16-17-16-14--14s17~~~--||
A|--12-14----------------------------------------------------------||
E|-----------------------------------------------------------------||
Comments