Misc Unsigned Bands - Creeping Death - Disintegrate Chords & Tabs

 

Creeping Death - Disintegrate Chords & Tabs

Misc Unsigned Bands Chords & Tabs

Version: 1 Type: Tab 0 ratings
1 star 2 stars 3 stars 4 stars 5 stars
comments

Creeping Death - Disintegrate Tab

Disintegrate.

This is a song by my band currently two guitarists and an awesome bass player, we are a 
metal band and we are hoping to be gigging in a couple of months. We are based in Stoke 
Trent in England and looking for a drummer.
Our riffs are excellent in my opinion, very slayer like. More tabs will be up soon for 
wanting to have a pop at a blind tab (i.e you have never heard the song)
Cheers, Daz.

Main Riff:
E----------------------------------------|
B----------------------------------------|
G----------------------------------------|
D----------------------------------------|
A------7-----7---7-----7----8p7-5h7------|
E--0-0---0-0---0---0-0---0---------------| X7

Drums enter after four Bars of intro
E-------------------------------|
B-------------------------------|
G-------------------------------|
D-------------------------------|
A------7-----7---7--2-----------|
e--0-0---0-0---0----0-----------| X One

Both Guitars:
E----------------------------------------|
B----------------------------------------|
G----------------------------------------|
D----------------------------------------|
A------7-----7---7-----7----8p7-5h7------|
E--0-0---0-0---0---0-0---0---------------| X8

Variation (played Once Only):
E----------------------------------------|
B----------------------------------------|
G----------------------------------------|
D-----------------------7----------------|
A------8-----7---10-----------8p75h7----|
E--6-6---6-6---6----6-6----6-------------|

Both Guitars: Play Four Times
E-----------------------------------------|
B-----------------------------------------|
G-----------------------------------------|
D-----------------------------------------|
A--2------7-----8-----7-----5---7---------|
E--0--0-0---0-0---0-0---0-0---0-----------| X3

E-----------------------------------------|
B-----------------------------------------|
G-----------------------------------------|
D-----------------------------------------|
A--3------7-----8-----7-----5---7---------|
E--1--0-0---0-0---0-0---0-0---0-----------| X1

Verse:
E----------------------------------------|
B----------------------------------------|
G----------------------------------------|
D----------------------------------------|
A------7-----7---7-----7----8p7-5h7------|
E--0-0---0-0---0---0-0---0---------------| X3

E----------------------------------------|
B----------------------------------------|
G----------------------------------------|
D--8-8-8-8-8-8-8-8-8-8-8-8-8-8-8-8-------|
A--8-8-8-8-8-8-8-8-8-8-8-8-8-8-8-8-------|
e--6-6-6-6-6-6-6-6-6-6-6-6-6-6-6-6-------| X One

E----------------------------------------|
B----------------------------------------|
G----------------------------------------|
D----------------------------------------|
A------7-----7---7-----7----8p7-5h7------|
E--0-0---0-0---0---0-0---0---------------| X 3

E----------------------------------------|
B----------------------------------------|
G----------------------------------------|
D--8-8-8-8-8-8-8-8-8-8-8-8-8-8-8-8-------|
A--8-8-8-8-8-8-8-8-8-8-8-8-8-8-8-8-------|
e--6-6-6-6-6-6-6-6-6-6-6-6-6-6-6-6-------| X One
[ Tab from: http://www.guitartabs.cc/tabs/m/misc_unsigned_bands/creeping_death_disintegrate_tab.html ]
Chorus:
E--------------------------------------|
B--------------------------------------|
G--------------------------------------|
D--------------------------------------|
A--2------5-----7-----8-----7---5------|
e--0-0-0--3-0-0-5-0-0-6-0-0-5-0-3------|

E--------------------------------------|
B--------------------------------------|
G---------------------8-8-8-8-8-8------|
D---------------------8-8-8-8-8-8------|
A--2-----5-----2------6-6-6-6-6-6------|
e--0-0-0-3-0-0-0-0-0-------------------| x4

Break:
E--------------------------|
B--------------------------|
G--------------------------|
D---(2)--------------------|
A---(2)--------------------|
e---(0)--------------------|
Bridge: Play Through Numerous Times.
E-----------------------------------------------------|
B-----------------------------------------------------|
G-----------------------------------------------------|
D-----------------------------------------------------|
A------7-----7---7-----7---8p7-5h7-----7-----7--------|
e--0-0---0-0---0---0-0---0---------0-0---0-0---0-0----|

e------------------------------------------|
b------------------------------------------|
g-------------------------7h9h10-----------|
d-----------------7h9h10-------------------|
a----------5h7h8---------------------------|
e-5h7h8-----------------------------------| X Four

e----------------------|
b----------------------|
g---10~~~~~~~~---------|
d----------------------|
a----------------------|
e----------------------|

Stabs.
e---------------------------|
b---------------------------|
g---------------------------|
d----2-----2-----2----------|
a----2-----2-----2----------|
e----0-----0-----0----------|


Structure:

Main Riff - Guitar One Four Times
Main Riff - Guitar One Four Times w/Bass
Main Riff - Both Guitars 8 Times - Full Kick in
Variation Riff - Once - Guitar Two
Thrash Riff - Four Times - Both Guitars
Verse (main riff) - 8 Times
Chorus - Four Times
Break - Once
Thrash Riff - Four Times
Verse - 8 Times
Chorus - 4 Times
Bridge - 4 Times
------------------------------------------------------------------------
Disintegrate Lyrics:

Strike!	(Riff kicks in here)

Our flesh is moulded to others liking,
People afraid when lightning's striking,
The thunder strikes and shits you up,
Cause when it strikes, you better duck

The sky's alight and the drum of the gods,
Beats down onto our hearts,
The brightness flashes, blinds your eyes,
It holds the fate of our mankind,

When lightning strikes,
And hits us all,
Our body and mind,
Disintegrate!

When lightning strikes,
No time to duck,
Your staring death,
Disintegrate!

Disintegrate!
Agggghhhhhhh!

Our flesh is scared from sharp blue lightning,
People die when lightning strikes,
The thunder strikes and shits you up,
Cause when it strikes, you better duck

We piss on earth and it pisses back,
Falling from above to hell and back,
Sure we can avoid the lightning,
But we can't do nothing, when it's striking,

When lightning strikes,
And hits us all,
Our body and mind,
Disintegrate!

When lightning strikes,
No time to duck,
Your staring death,
Disintegrate!

Disintegrate!
Comments