Misc Unsigned Bands - Concreet Cloud - The Holes Method Chords & Tabs

 

Concreet Cloud - The Holes Method Chords & Tabs

Misc Unsigned Bands Chords & Tabs

Version: 1 Type: Tab 0 ratings
1 star 2 stars 3 stars 4 stars 5 stars
comments

Concreet Cloud - The Holes Method Tab

New band concreet cloud

THE "HOLE" METHOD


Intro (play first line twice) Verse clean
e|-------------------|----------0--------|-------------------|----------------------|
B|----------3--------|------3-----3---3--|----------1--------|--0-------1-----------|
G|------0-----0---0--|----0---0-----0----|------2-----2---2--|----2---2---2---------|
D|----2---2-----2----|-------------------|----2---2-----2----|------2---------------|
A|--3----------------|-------------------|--0----------------|--------------0-2-----|
E|-------------------|--3----------------|-------------------|----------------------|


Verse clean
e|-------------------|----------0--------|-------------------|----------------------|
B|----------3--------|------3-----3---3--|----------1--------|--0-------1-----------|
G|------0-----0---0--|----0---0-----0----|------2-----2---2--|----2---2---2---------|
D|----2---2-----2----|-------------------|----2---2-----2----|------2---------------|
A|--3----------------|-------------------|--0----------------|--------------0-2-----|
E|-------------------|--3----------------|-------------------|----------------------|


Verse clean                                    Bridge 1 clean      Chorus distorted
e|-------------------|----------0--------|-------------------|---------1------------|
B|----------3--------|------3-----3---3--|-----3---1---------|-----3-----3--1-------|
G|------0-----0---0--|----0---0-----0----|---2---2---(x2)----|---2---2--------2(x3)|
D|----2---2-----2----|-------------------|-0-----------------|-0--------------------|
A|--3----------------|-------------------|-------------------|----------------------|
E|-------------------|--3----------------|-------------------|----------------------|
[ Tab from: http://www.guitartabs.cc/tabs/m/misc_unsigned_bands/concreet_cloud_the_holes_method_tab.html ]
                                             
                                             Bridge 2 distorted
e|---------1-----------|----------0--------|-------------------|--------------------|
B|-----3----3--11111--3|------3----3-3-----|-------------------|--------------------|
G|---2---2----2--------|----0---0-----0----|-------------------|--------------------|
D|-0-------------------|-------------------|-222222------------|---------2---2-(x2)-|
A|---------------------|-------------------|-000000--444444----|-222222--0-2-0------|
E|---------------------|--3----------------|---------222222----|-000000----0--------|
     
Verse
Bridge 1
Chorus
Bridge 2

Verse 2


Bridge 3 distorted

e|-----------------------------------------------------------------------------------|
B|-----------------------------------------------------------------------------------|
G|-----------------------------------------------------------------------------------|
D|--------------------------------------------------------------------4--------------|
A|-4444444444444-44-(x4)-5---7---5---222222-5---7---5---444444-(x2)---4--------------|
E|-2222222222222-02------3-0-5-0-3-0-000000-3-0-5-0-3-0-222222--------2--------------|
p.m ____________

Solo

e|-------------------------------------------12---------------------------------------|
B|----12h15p12----12h15p12----12h15p12-----12---15-12v--------------------------------|  
G|-14b---------14b--------14b----------14b-------------14vvv12v14vvv12v14vvv12--------|
D|------------------------------------------------------------------------------------|
A|------------------------------------------------------------------------------------|     
E|------------------------------------------------------------------------------------|

e|------------------------------------------------------------------------------------------------------|
B|--0------------------------------------------------------------------------------12-------------------|
G|-14b-12----12v-(x3)--------------12-14bvr-------------12-14bvr14b14b14b14b14vvv--1212141414br12v-----|
D|--------14-----------------12-14----------------12-14------------------------------14-----------------|
A|---------------------12-14----------------12-14-------------------------------------------------------|
E|------------------------------------------------------------------------------------------------------|

Bridge 3
Comments