Misc Unsigned Bands - Company Name - Novocain Chords & Tabs

 

Company Name - Novocain Chords & Tabs

Misc Unsigned Bands Chords & Tabs

Version: 1 Type: Tab 0 ratings
1 star 2 stars 3 stars 4 stars 5 stars
comments

Company Name - Novocain Tab

   
Novocain
Company Name
Lyrics By Jon LaFollette
Music By LaFollette/Company Name
Tabbed By JR (soggypeaches@yahoo.com)

NOTE: Tune Guitar Down To Drop D

Intro
e-10~----------------------------------------------------------|R
b--------------------------------------------------------------|E
g--------------------------------------------------------------|P
d----------------------------------------------------------E---|  4X
a---------------------------5-5-5-5-5-5-5-5-7-7-7-7-7-9-7-0----|A
d---------------------------0-0-0-0-0-0-0-0-0-0-0-0-0-0-0-0----|T
                          PM...............................

Verse 1
e---------------------------------|
b---------------------------------|
g---------------------------------|
d---------------------------------|
a-5-5-5-5-5-5-5-5-7-7-7-7-7-9-7-0-|
d-0-0-0-0-0-0-0-0-0-0-0-0-0-0-0-0-|
  everyone here in this pissant town
  looks trashed and wasted in pain
  everyone here is looking for the real thing
  and they just want to get lost inside a daydream

Prechorus 1
e-----------------------------------------------------------------|
b-----------------------------------------------------------------|
g-----------------------------------------------------------------|
d-5-5-5-5-5-5-5-5-4-4-4-4-4-4-4-4---------------------------------|
a-3-3-3-3-3-3-3-3-2-2-2-2-2-2-2-2-5-5-5-5-5-5-5-5-5-5-5-5-5-5-5-5-|
d---------------------------------0-0-0-0-0-0-0-0-0-0-0-0-0-0-0-0-|
  everyone's ready for a good time
  just wanting to fly
  for the moment everyone is crazy
  everyone's ready for a good time
  just wanting to fly
  for the moment everyone is crazy

e-----------------|
b-----------------|
g-----------------|
d-3-3-3-3-2-2-6-6-|
a-3-3-3-3-2-2-6-6-|
d-3-3-3-3-2-2-6-6-|
  i dont care, i just need some novocain

Chorus
e---------------------------------|
b-----------------7-7-7-7-7-------|
g-----------------7-7-7-7-7-------|
d-3-3-3-3-5-5-5-5-7-7-7-7-7-7-7-7-|
a-3-3-3-3-5-5-5-5-5-5-5-5-7-7-7-7-|
d-3-3-3-3-5-5-5-5-5-5-5-5-7-7-7-7-|
  just put me out now so i dont feel a thing
  just put me out now so then i'll feel like me
  just put me out now so i can feel free

e-----------------|
b-----------------|
g-----------------|
d-3-3-3-3-2-2-6-6-|
a-3-3-3-3-2-2-6-6-|
d-3-3-3-3-2-2-6-6-|
  just put me out with novocain please

e-----------------------------------------|R
b-----------------------------------------|E
g--------------------------------P  Play--| 4X
d-----------------------------------------|E
a-5-5-5-5-5-5-5-5-7-7-7-7-7-9-7-0---------|A
d-0-0-0-0-0-0-0-0-0-0-0-0-0-0-0-0---------|T

Verse 2
e---------------------------------|
b---------------------------------|
g---------------------------------|
d---------------------------------|
a-5-5-5-5-5-5-5-5-7-7-7-7-7-9-7-0-|
d-0-0-0-0-0-0-0-0-0-0-0-0-0-0-0-0-|
 Anybody here living in this place
 will tell what hell is like
 Not knowing what to do in your own free time
 Just wanting to find a cold 40
[ Tab from: http://www.guitartabs.cc/tabs/m/misc_unsigned_bands/company_name_novocain_tab.html ]
Prechorus 2
e-----------------------------------------------------------------|
b-----------------------------------------------------------------|
g-----------------------------------------------------------------|
d-5-5-5-5-5-5-5-5-4-4-4-4-4-4-4-4---------------------------------|
a-3-3-3-3-3-3-3-3-2-2-2-2-2-2-2-2-5-5-5-5-5-5-5-5-5-5-5-5-5-5-5-5-|
d---------------------------------0-0-0-0-0-0-0-0-0-0-0-0-0-0-0-0-|
  Anybody will strap in for the long ride
  They just want to learn to breathe
  Anybody will just want to die
  They just want to learn to breathe

e-----------------|
b-----------------|
g-----------------|
d-3-3-3-3-2-2-6-6-|
a-3-3-3-3-2-2-6-6-|
d-3-3-3-3-2-2-6-6-|
  i dont care, i just need some novocain

Chorus
e---------------------------------|
b-----------------7-7-7-7-7-------|
g-----------------7-7-7-7-7-------|
d-3-3-3-3-5-5-5-5-7-7-7-7-7-7-7-7-|
a-3-3-3-3-5-5-5-5-5-5-5-5-7-7-7-7-|
d-3-3-3-3-5-5-5-5-5-5-5-5-7-7-7-7-|
  just put me out now so i dont feel a thing
  just put me out now so then i'll feel like me
  just put me out now so i can feel free

e-----------------|
b-----------------|
g-----------------|
d-3-3-3-3-2-2-6-6-|
a-3-3-3-3-2-2-6-6-|
d-3-3-3-3-2-2-6-6-|
  just put me out with novocain please

Bridge
e------------------------|
b-----------5-5--2-2-2-2-|
g-----------5-5--2-2-2-2-|
d-3-3--5-5--5-5--2-2-2-2-|
a-3-3--5-5--3-3--0-0-0-0-|
d-3-3--5-5--3-3----------|
 put me down with novocain
 put me down with novocain
 put me down with novocain
 help me to erase the pain

e-----------------|
b-----------------|
g-----------------|
d-3-3-3-3-2-2-6-6-|
a-3-3-3-3-2-2-6-6-|
d-3-3-3-3-2-2-6-6-|
 just help me to die

Chorus 2
e---------------------------------|
b-----------------7-7-7-7-7-------|
g-----------------7-7-7-7-7-------|
d-3-3-3-3-5-5-5-5-7-7-7-7-7-7-7-7-|
a-3-3-3-3-5-5-5-5-5-5-5-5-7-7-7-7-|
d-3-3-3-3-5-5-5-5-5-5-5-5-7-7-7-7-|
 just put me out so i can finally breathe
 just pt me down so i dont have to be seen
 just put me out so i can finally be free

Chorus
e---------------------------------|
b-----------------7-7-7-7-7-------|
g-----------------7-7-7-7-7-------|
d-3-3-3-3-5-5-5-5-7-7-7-7-7-7-7-7-|
a-3-3-3-3-5-5-5-5-5-5-5-5-7-7-7-7-|
d-3-3-3-3-5-5-5-5-5-5-5-5-7-7-7-7-|
  just put me out now so i dont feel a thing
  just put me out now so then i'll feel like me
  just put me out now so i can feel free

e-----------------|
b-----------------|
g-----------------|
d-3-3-3-3-2-2-6-6-|
a-3-3-3-3-2-2-6-6-|
d-3-3-3-3-2-2-6-6-|
  just put me out with novocain please

Bridge
e------------------------|
b-----------5-5--2-2-2-2-|
g-----------5-5--2-2-2-2-|
d-3-3--5-5--5-5--2-2-2-2-|
a-3-3--5-5--3-3--0-0-0-0-|
d-3-3--5-5--3-3----------|
 put me down with novocain
 put me down with novocain
 put me down with novocain
 help me to erase the pain

e-----------------|
b-----------------|
g-----------------|
d-3-3-3-3-2-2-6-6-|
a-3-3-3-3-2-2-6-6-|
d-3-3-3-3-2-2-6-6-|
 just help me to die

e--
b--
g--
d-0~
a-0~
d-0~
Comments