Misc Unsigned Bands - Clearview - Give You Life Chords & Tabs

 

Clearview - Give You Life Chords & Tabs

Misc Unsigned Bands Chords & Tabs

Version: 1 Type: Tab 0 ratings
1 star 2 stars 3 stars 4 stars 5 stars
comments

Clearview - Give You Life Tab

----------------------------------------------------------------------------
			     Give You Life - Clearview
----------------------------------------------------------------------------
Tabbed by: Ross Ribblett
Band: Clearview
song: Give you life

      * Intro *
      guitar one
e|----------------------------------------------------------------|
B|----------------------------------------------------------------|
G|-----444444------666666-----444444-----666666-------------------|  X4
D|-7-7--------7-7-------7-7----------7-7--------------------------|
A|-7-7--------7-7-------7-7----------7-7--------------------------|
E|-7-7--------7-7-------7-7----------7-7--------------------------|

    * Intro *
    guitar two
e|-----------------------------------------------------------------|
B|-----------------------------------------------------------------|
G|-----------------------------------------------------------------|  X2
D|-7--5-5-5-5-5---7--3-3-3-3-3-------------------------------------|  
A|-7--5-5-5-5-5---7--3-3-3-3-3-------------------------------------|
E|-7--5-5-5-5-5---7--3-3-3-3-3-------------------------------------|


   * Verse *
   one guitar
e|------------------------------------------------------------------------|
B|------------------------------------------------------------------------|
G|------------------------------------------------------------------------|
D|-7~----------------5-5--7~----------------5-5--7------------------------|
A|-7~----------------5-5--7~----------------5-5--7------------------------|
E|-7~----------------5-5--7~----------------5-5--7------------------------|
[ Tab from: http://www.guitartabs.cc/tabs/m/misc_unsigned_bands/clearview_give_you_life_tab.html ]
 * Pre Chorus *
   one guitar
e|-----------------------------------------------------------------|
B|-----------------------------------------------------------------|
G|-----------------------------------------------------------------|
D|-7-------3-------5-------7---------------------------------------|
A|-7-------3-------5-------7---7-7-7-7-7-7-7-7-7-7-7-7-------------|
E|-7-------3-------5-------7---7-7-7-7-7-7-7-7-7-7-7-7-------------|
                               . . . . . . . . . .
   * Chorus *
  Both guitars
e|-------------------------------------------------------------------------|
B|-------------------------------------------------------------------------|
G|-------------------------------------------------------------------------|
D|-5-5-5-7-7-7-7-7-7-5-5-5-7-7-7-7-7-7-5-5-5-7-7-7-7-7-7--9-9-X-9-9-X-10-10|
A|-5-5-5-7-7-7-7-7-7-5-5-5-7-7-7-7-7-7-5-5-5-7-7-7-7-7-7--9-9-X-9-9-X-10-10|
E|-5-5-5-7-7-7-7-7-7-5-5-5-7-7-7-7-7-7-5-5-5-7-7-7-7-7-7--9-9-X-9-9-X-10-10|

 * Interlude *
   guitar one
e|-------------------------------------------------------------------------|
B|-------------------------------------------------------------------------|
G|-------------------------------------------------------------------------|
D|-3--------5---------7---------3--------5---------7-----------------------|
A|-3--------5---------7---------3--------5---------7-----------------------|
E|-3--------5---------7---------3--------5---------7-----------------------|

* Interlude *
 guitar two

e|-3--------5---------7---------3--------5---------7-------|
B|---------------------------------------------------------|
G|---------------------------------------------------------|
D|---------------------------------------------------------|
A|---------------------------------------------------------|
E|---------------------------------------------------------|

Order:

Intro
Verse
Intro
Chorus
Intro
verse
pre chorus
chorus
interlude
chorus x2


Thanx for checking my tab out.. hope u have fun playin it!
Comments