Misc Unsigned Bands - Chris Watts Band - House Of Glass Chords & Tabs

 

Chris Watts Band - House Of Glass Chords & Tabs

Misc Unsigned Bands Chords & Tabs

Version: 1 Type: Bass Tab 0 ratings
1 star 2 stars 3 stars 4 stars 5 stars
comments

Chris Watts Band - House Of Glass Bass Tab

The Chris Watts Band is a new band from NE Texas, official name not decided

bass starts after guitar & drums play the intro

Basically the whole song goes like this:

g|---------------------------------------------------|
d|-----3-----------3-----------3---------------------|
a|--3-----3-----3-----3-----3-----3-----3--3--3--00--|
e|-----------3-----------3-----------3----------0----|
[ Tab from: http://www.guitartabs.cc/tabs/m/misc_unsigned_bands/chris_watts_band_house_of_glass_btab.html ]
During the solo: (pick bass recomended)
g|----------00000000--------------------------------------------|
d|--00000000--------00000000----------------33333333------------|
a|--------------------------0000000~33333333----------------3~~~|
e|--------------------------------------------------33333333----|

outro:
g|-----------------------------|
d|--3--------------------------|
a|-------3---------3-----------|
e|------------3----------------|
Comments