Misc Unsigned Bands - Cfs - Dumbarton Anthem Chords & Tabs

 

Cfs - Dumbarton Anthem Chords & Tabs

Misc Unsigned Bands Chords & Tabs

Version: 1 Type: Bass Tab 0 ratings
1 star 2 stars 3 stars 4 stars 5 stars
comments

Cfs - Dumbarton Anthem Bass Tab

We're a new band from Towson, MD. We're in middle school at Dumbarton.
There's four of us: Me(Kris), Mike, DJ, and Brian.

I'm the bassist for CFS so these are right. I'm pretty sure our stuff is on
kazaa, so check us out. This is our first song

Intro: first rep. without bass
G:---6-8-8-10-11-6
D:-6--------------
A:----------------
E:----------------

Verse/Chorus: this is most of the song
G:---6---6----8---8----10-----10----6---6-
D:--6-6-6-6--8-8-8-8-10--10-10--10-6-6-6-6  x3
A:----------6---6---8------8------4---4---  
E:-4---4----------------------------------
[ Tab from: http://www.guitartabs.cc/tabs/m/misc_unsigned_bands/cfs_dumbarton_anthem_btab.html ]
Bridge 1:
G:----------------------------------------------------------------------
D:-------------44--------------------------44---------------------------
A:--444-666-22----444-666-22-44--444-666-22----444-4466666666-44444444--
E:-2-------------2--------------2-------------2-------------------------

Bass Solo: i like how this sounds. its cool.
G:---------------------------------------------------------8------------------
D:----------------------------------------------------------8-----------------
A:---888-10-10-10-66-66--888-10-10-10-6-88--888-10-10-10-66----888-10-----8---
E:-6--------------------6------------------6------------------6---------------

Bridge 2: (back off, this is my territory...)
G:-------------------------------
D:----------8--8---10--10---6--6- x2(end on C#)
A:---6--6-66-66--88--88---44-44--
E:-44-44-------------------------

Finish with Verse/Chorus riff
last rep do this:
G:---6---6---8---8----10-----10----6---6-----
D:--6-6-6-6-8-8-8-8-10--10-10--10-6-6-6-6----
A:---------6---6---8------8------4---6-------
E:-4---4---------------------------------4-4-

enjoy.
Comments