Misc Unsigned Bands - Caragana - Swept Away Chords & Tabs

 

Caragana - Swept Away Chords & Tabs

Misc Unsigned Bands Chords & Tabs

Version: 1 Type: Tab 0 ratings
1 star 2 stars 3 stars 4 stars 5 stars
comments

Caragana - Swept Away Tab

----------------------------------------------------------------------------
                          This is a fairly new band
                          Caragana-Swept Away
----------------------------------------------------------------------------
This is my first ever tab and I am almost sure it is 100% correct, hope you like it.
Tuning: standard
Tabbed by Bryan J
Email:moto_x_man24@hotmail.com
Piano intro converted to guitar
e------7---9---7---7--------12----14----12--------------|
b--7h9---9---9---9----12h14----14----14----14-12-14-----|
g-------------------------------------------------------|
d-------------------------------------------------------|
a-------------------------------------------------------|
e-------------------------------------------------------|

e--7-7-7-9-7-9-7-7--------------------------------------|
b---9-9-9-9-9-9-9-9-------------------------------------|
g-------------------------------------------------------|
d-------------------------------------------------------|
a-------------------------------------------------------|
e-------------------------------------------------------|

Guitar 1 Rhythm intro
e--------------------------------------------------------|
b--------------------------------------------------------|
g-------------------11xxxx-7-7-7-7-7---------------------|
d--14xxxx9-9-9-9-9--11xxxx-7-7-7-7-7---------------------|play twice
a--14xxxx9-9-9-9-9--9-xxxx-5-5-5-5-5---------------------|
e--12xxxx7-7-7-7-7---------------------------------------|

guitar 2 lead intro
e------7-7----------12/14--12---------7-7-----7----------|
b--7h9--9-10~-12h14-----------15~--7h9-9-10~-7-10--------|
g------------------------------------------------9p7-----|
d----------------------------------------------------9---|
a--------------------------------------------------------|
e--------------------------------------------------------|

Piano rhythm verse
e--7-5-7-7-7-5-5-5-7-7-7-5-7-7-7-5-5-5-7-7-77-77---------|
b--7-5-7-8-8-6-5-5-7-8-7-5-7-8-8-6-5-5-7-8-88-88---------|
g--8-6-8-9-9-7-6-6-8-9-8-6-8-9-9-7-6-6-8-9-99-99---------|
d--9-7-9-9-9-7-7-7-9-9-9-7-9-9-9-7-7-7-9-9-99-99---------|
a--9-7-9-7-7-5-7-7-9-7-9-7-9-7-7-5-7-7-9-7-77-77---------|
e--7-5-7-------5-5-7---7-5-7-------5-5-7-----------------|

Lead guitar over Piano Verse
e---------------------------------------------------------|
b---------------------------------------------------------|
g---------------------------------------------------------|
d-7-9p7-9b~-----------------------------------------------|play 3 times
a------9--------------------------------------------------|
e---------------------------------------------------------|

Lead Pre Chorus
e-7-7-7-9-7-9-7-7-----------------------------------------|
b--9-9-9-9-9-9-9-9----------------------------------------|
g---------------------------------------------------------|
d---------------------------------------------------------|play twice
a---------------------------------------------------------|
e---------------------------------------------------------|

Guitar 1 Rhythm Chorus
e--------------------------------------------------------|
b--------------------------------------------------------|
g-------------------11xxxx-7-7-7-7-7---------------------|
d--14xxxx9-9-9-9-9--11xxxx-7-7-7-7-7---------------------|play 4 times
a--14xxxx9-9-9-9-9--9-xxxx-5-5-5-5-5---------------------|
e--12xxxx7-7-7-7-7---------------------------------------|
[ Tab from: http://www.guitartabs.cc/tabs/m/misc_unsigned_bands/caragana_swept_away_tab.html ]
Guitar 2 Lead Chorus
e------7-7----------12/14--12---------7-7-----7----------|
b--7h9--9-10~-12h14-----------15~--7h9-9-10~-7-10--------|
g------------------------------------------------9p7-----|play twice
d----------------------------------------------------9---|
a--------------------------------------------------------|
e--------------------------------------------------------|

Piano rhythm verse
e--7-5-7-7-7-5-5-5-7-7-7-5-7-7-7-5-5-5-7-7-77-77---------|
b--7-5-7-8-8-6-5-5-7-8-7-5-7-8-8-6-5-5-7-8-88-88---------|
g--8-6-8-9-9-7-6-6-8-9-8-6-8-9-9-7-6-6-8-9-99-99---------|
d--9-7-9-9-9-7-7-7-9-9-9-7-9-9-9-7-7-7-9-9-99-99---------|
a--9-7-9-7-7-5-7-7-9-7-9-7-9-7-7-5-7-7-9-7-77-77---------|
e--7-5-7-------5-5-7---7-5-7-------5-5-7-----------------|

Lead Pre Chorus
e-7-7-7-9-7-9-7-7-----------------------------------------|
b--9-9-9-9-9-9-9-9----------------------------------------|
g---------------------------------------------------------|
d---------------------------------------------------------|play twice
a---------------------------------------------------------|
e---------------------------------------------------------|

Guitar 1 Rhythm Chorus
e--------------------------------------------------------|
b--------------------------------------------------------|
g-------------------11xxxx-7-7-7-7-7---------------------|
d--14xxxx9-9-9-9-9--11xxxx-7-7-7-7-7---------------------|play 4 times
a--14xxxx9-9-9-9-9--9-xxxx-5-5-5-5-5---------------------|
e--12xxxx7-7-7-7-7---------------------------------------|

Guitar 2 Lead Chorus
e------7-7----------12/14--12---------7-7-----7----------|
b--7h9--9-10~-12h14-----------15~--7h9-9-10~-7-10--------|
g------------------------------------------------9p7-----|play twice
d----------------------------------------------------9---|
a--------------------------------------------------------|
e--------------------------------------------------------|

Piano Bridge
e------7---9---7---7--------12----14----12--------------|
b--7h9---9---9---9----12h14----14----14----14-12-14-----|
g-------------------------------------------------------|
d-------------------------------------------------------|
a-------------------------------------------------------|
e-------------------------------------------------------|
Guitar 1 Rhythm Chorus Play twice softly & clean then...
e--------------------------------------------------------|
b--------------------------------------------------------|
g-------------------11xxxx-7-7-7-7-7---------------------|
d--14xxxx9-9-9-9-9--11xxxx-7-7-7-7-7---------------------|play 4 times
a--14xxxx9-9-9-9-9--9-xxxx-5-5-5-5-5---------------------|
e--12xxxx7-7-7-7-7---------------------------------------|

Guitar 2 solo fading out
e-15p12------------------14p12------------------15p12------------------|
b------15-play 4 times---------14-play 4 times-------15 play 4 times---|
g----------------------------------------------------------------------|
d----------------------------------------------------------------------|
a----------------------------------------------------------------------|
e----------------------------------------------------------------------|

e-12h15p12h15p12h15p12h15p12h15p12h15p12~~~~~~-----------|
b--------------------------------------------------------|
g--------------------------------------------------------|
d--------------------------------------------------------|
a--------------------------------------------------------|
e--------------------------------------------------------|
Comments