Misc Unsigned Bands - Californium - Nothing At All Chords & Tabs

 

Californium - Nothing At All Chords & Tabs

Misc Unsigned Bands Chords & Tabs

Version: 1 Type: Tab 0 ratings
1 star 2 stars 3 stars 4 stars 5 stars
comments

Californium - Nothing At All Tab

Hola. I'm one of the guitarists for Californium. I also wrote this song,
so I know this tab is correct.

Nothing at All
by Californium
Tabbed by Kenny Smith
 
Tempo: Moderately Slow = 67

Part 1 x2 cln. electric w/ chorus
Part 2 x1 rest
Part 3 x8 electric w/ dist.
Part 4 x1 electric w/ dist.
Part 3 x8 electric w/ dist.
Part 4 x1 electric w/ dist.
Part 5 x4 cln. electric (palm-muted)
Part 3 x8 electric w/ dist.
Part 4 x3 electric w/ dist.
Part 6 x1 electric w/ dist.
[ Tab from: http://www.guitartabs.cc/tabs/m/misc_unsigned_bands/californium_nothing_at_all_tab.html ]
Part 1: pre-intro
 |       |       |       |        |       |       |       |        
|2/--3---------------------------|3/--2---------------------------|
|1-------------------------------|1-------------------------------|
|2-------------------------------|2-------------------------------|
|--------------------------------|0-------------------------------|
|--------------------------------|--------------------------------|
|--------------------------------|--------------------------------|
 
 |       |       |       |        |       |       |       |        
|2-3-0---------------------------|3/--2---------------------------|
|0---------------0-----------3---|1-------------------------------|
|0-------------------------------|2-------------------------------|
|2-------------------------------|0-------------------------------|
|--------------------------------|--------------------------------|
|--------------------------------|--------------------------------|
 
Part 2: Drum tap-in              Part 3: Intro and Verses
 |       |       |       |        |       |       |       |        
|--------------------------------|--------------------------------|
|--------------------------------|--------------------------------|
|--------------------------------|------2---2-2---5-5-5-----------|
|--------------------------------|----2-2---2-2-0-5-5-5-6---6-6-5-|
|--------------------------------|2---2-0---0-0-0-3-3-3-6---6-6-5-|
|--------------------------------|0---0-----------------4---4-4-3-|

Part 4: Chorus                   Part 5: Bridge
 |       |       |       |        |       |       |       |        
|--------------------------------|--------------------------------|
|--------------------------------|--------------------------------|
|--------------------------------|--------------------------------|
|7---7-7-7-7-7-7-6---------------|--------------------------------|
|7---7-7-7-7-7-7-6---0---0---0---|2-2-2-2-2-2-2-2-1-1-1-1-0-0-0-0-|
|5---5-5-5-5-5-5-4---0---0---0---|3-3-3-3-3-3-3-3-2-2-2-2-1-1-1-1-|
                                 Part 6: Outro
 |       |       |       |        |       |       |       |        
|--------------------------------|--------------------------------|
|--------------------------------|--------------------------------|
|--------------------------------|--------------------------------|
|--------------------------------|2-------------------------------|
|2-2-2-2-2-2-2-2-2-2-2-2-2-2-2-3-|2-------------------------------|
|0-0-0-0-0-0-0-0-0-0-0-0-0-0-0-1-|0-------------------------------|
Comments