Misc Unsigned Bands - Burning Under Water - Why Chords & Tabs

 

Burning Under Water - Why Chords & Tabs

Misc Unsigned Bands Chords & Tabs

Version: 1 Type: Bass Tab

Burning Under Water - Why Bass Tab

Intro
|---------------------------------------------------------|
|---------------------------------------------------------|
|-5-------------------------------------------------------|
|--------5-------0-----0-3-5------------------------------|
Verse
|---------------------------------------------------------|
|---------------------------------------------------------|
|-5-------------------------------------------------------|
|---5-5-0-3-0--0-3-5-5-5-5--------------------------------|
Chorus
|---------------------------------------------------------|
|---------------------------------------------------------|
|-5-5-5-5-5-5---------------------------------------------|
|-------------5-5-5-5-5-5-0-0-0-0-0-0----5-5-5------------|
Verse
|---------------------------------------------------------|
|---------------------------------------------------------|
|-5-------------------------------------------------------|
|---5-5-0-3-0--0-3-5-5-5-5--------------------------------|
[ Tab from: http://www.guitartabs.cc/tabs/m/misc_unsigned_bands/burning_under_water_why_btab.html ]