Misc Unsigned Bands - Breakbenifit - Salvation Chords & Tabs

 

Breakbenifit - Salvation Chords & Tabs

Misc Unsigned Bands Chords & Tabs

Version: 1 Type: Tab 0 ratings
1 star 2 stars 3 stars 4 stars 5 stars
comments

Breakbenifit - Salvation Tab

Album:Buetiful Letdown (not The Beautiful Letdown by Switchfoot)
Acoustic

This group was formed about a month to 2 months ago. They haven't played any big shows 
but we're on our way!  We also will release our first single for Christmas...hopefully!

Intro:
e------------------------------|
b------------------------------|
g------------------------------|
d------------------------------|
a-11-11--7----9-9--5-----------|
e--9-9---5----7-7--3-----------|
[ Tab from: http://www.guitartabs.cc/tabs/m/misc_unsigned_bands/breakbenifit_salvation_tab.html ]
Verse 1:
e------------------------------|
b------------------------------|
g------------------------------|
d------------------------------|
e-11------9------7------8------|
a--9{10x}-7{10x}-5{10x}-6{10X}-|

Chorus: Chords
E 1 2+
A 3 4+
E 1 2+
A 3+ 4+
G 1 2+
D 3 4+
G 1 2+
D 3+ 4+
Am 1 2+
A 3 4+
Am 1 2+
A 3 4+
Am 1+ 2+
A 3+ 4+ (repeat Am1+2+ A3+4+ 6x)

Verse 2: Same as Verse 1

Bridge:
e-2---------|
b-3---------|
g-2---------|
d-----------|
a---3-2-----|
e------3b---|
Repeat 2x

Chorus: Same as first chorus

Bridge Continued:
e------------|
b------------|
g------------|
d------1-3-4-|
a1-3-4-------|
e------------|

Chorus: Same as 1 and 2 chorus, end on A chord.
Comments