Misc Unsigned Bands - Blood On The Dance Floor - You Done Goofed Chords & Tabs

 

Blood On The Dance Floor - You Done Goofed Chords & Tabs

Misc Unsigned Bands Chords & Tabs

Version: 1 Type: Tab

Blood On The Dance Floor - You Done Goofed Tab

   
------------------------------------------------------------------------
		You Done Goofed - Blood On The Dance Floor
------------------------------------------------------------------------
Tabbed by: r6o6n666
Email:joshsilkworthridesbmx@yahoo.com
[ Tab from: http://www.guitartabs.cc/tabs/m/misc_unsigned_bands/blood_on_the_dance_floor_you_done_goofed_tab.html ]
Tuning: Standard
	Intro and you can repeat with the chorus with a loop
e|----------------------------------------------------------------------|
B|---------15--12-----19--12-----19--15-----17--10----------------------|
G|----------------------------------------------------------------------|
D|----------------------------------------------------------------------|
A|----------------------------------------------------------------------|
E|----------------------------------------------------------------------|
                             This is where the chorus comes in
                             It goes along with the beat
                             Repeat the chorus 2X throughout the song
e|----------------------------------------------------------------------|
B|----------------------------------------------------------------------|
G|--------9----5-/-7----12----7-----------------------------------------|
D|--------x----x-/-x-----x----x-----------------------------------------|
A|--------7----3-/-5----10----5-----------------------------------------|
E|----------------------------------------------------------------------|

e|-----14---14---14---14----17---17---17---17---12---12--12--12---------|
B|--------15---15---15---15---15----15---15--15----15--15--15--15-------|
G|----------------------------------------------------------------------|
D|----------------------------------------------------------------------|
A|----------------------------------------------------------------------|
E|----------------------------------------------------------------------|
		Continue from above then chorus again
e|-----12--12--12--12---------------------------------------------------|
B|-------14--14--14--14-------------------------------------------------|
G|----------------------------------------------------------------------|
D|----------------------------------------------------------------------|
A|----------------------------------------------------------------------|
E|----------------------------------------------------------------------|


************************************

| /   slide up
| \   slide down
| h   hammer-on
| p   pull-off
| ~   vibrato
| +   harmonic
| x   Mute note
| b   Bend
| pb  Pre-bend
| br  Bend release
| pbr Pre-bend release
| brb Bend release bend

************************************