Misc Unsigned Bands - Beneath The Shadows - Calling All Terrorists Chords & Tabs

 

Beneath The Shadows - Calling All Terrorists Chords & Tabs

Misc Unsigned Bands Chords & Tabs

Version: 1 Type: Tab 0 ratings
1 star 2 stars 3 stars 4 stars 5 stars
comments

Beneath The Shadows - Calling All Terrorists Tab

 (Beneath the shadows is the name of my band)
Main Riff
--------------------|
--------------------|
--------------------|
--------------------|
--------------------|
-3333333-210-[x2]---|

Verse 1
---------------------------------|
---------------------------------|
---------------------------------|
---------------------------------|
---------------------------------|
-3333333-7777777-6666666-5555555-|
                            [x4]
----------------|
----------------|
----------------|
----------------|
----------------|
-6666666--------|

--------------------------------------|
--------------------------------------|
--------------------------------------|
-333-666-555-999-121212-111111-101010-|
-333-666-555-999-121212-111111-101010-|
-333-666-555-999-121212-111111-101010-|
                                     [x2]
--------------------------|
--------------------------|
--------------------------|
--------------------------|
--------------------------|
-99-9898989898989898989898

(repeat main riff)

[ Tab from: http://www.guitartabs.cc/tabs/m/misc_unsigned_bands/beneath_the_shadows_calling_all_terrorists_tab.html ]
Verse 2
----------------------------------------------------------------------|
----------------------------------------------------------------------|
----------------------------------------------------------------------|
----------------------------------------------------------------------|
---99-11-11-----------------------------------------------------------|
-9-----------1-0-9-99999-13-13-13-13-13-12-12-12-12-12-11-11-11-11-11-|[4x]

[chorus]   [repeat main riff]

Verse 3
-------------------------7-----------------------------------------|
-------------------------7-----------------------------------------|
-------------------------7-----------------------------------------|
-------------------------7-----------------------------------------|
-------------------------7-----------------------------------------|
-10101010101010-----3333-7-7777-7s12-12-12-12-12-------------------|
play until scream

------------|
------------|
------------|
------------|
------------|
-p10+11-0---|

Solo
-------------|
-------------|
-------------|
-------------|
-------------|
-17-21-20-19-|
[x2]

-7-12-11-10s7-|
--------------|
--------------|
--------------|
--------------|
--------------|
[x2]
(Repeat chorus and main)
Comments